Oops, an error
Loading. Please wait.

Split tab

version 3
version 3

Whole song

Interactive

275 views 3 this week
no commentswrite comment
1 2 3 4 5
x 3
add to favorites
×
Save as Personal and add changes to this tab that will be seen only by you. Learn more ›
×
You can save this tab as Personal to edit and correct it or add notes. All changes will be seen only by you. Learn more »
launch autoscroll
font size
0
reset
how to read this tab
guitar tuner
edit
Autoscroll
slow
fast
+/-
esc
set tempo
stop
-----------------------------------------------------------------------------------------
|                                   CHIMAIRA - SP LIT                                   |
|                           Album: Pass out of Existence (2001)                         |
-----------------------------------------------------------------------------------------
           If you have questions or corrections feel free to send me a message:
                        http://profile.ultimate-guitar.com/godspeedy/
                           https://www.facebook.com/Godspeedy14
                           
        Also, check out my Youtube channel: http://www.youtube.com/user/Godspeedy14

                                  Tuning: 7 string AEADGBE

**************************************GUITAR NOTATIONS***********************************
*                                                                                       *
*                                | *   palm mute         |                              *
*                                | s   slide             |                              *
*                                | h   hammer-on         |                              *
*                                | p   pull-off          |                              *
*                                | ~   vibrato           |                              *
*                                | +   pinch harmonics   |                              *
*                                | x   Mute note         |                              *
*                                | b   bend              |                              *
*                                | ``  Natural harmonic  |                              *
*                                                                                       *
*****************************************************************************************

-----------------------------------------------------------------------------------------
|                                    INTRO (00:00-00:31)                                |
-----------------------------------------------------------------------------------------

I. Guitar 1 (w/ dist)

E|-------------------------------------------------|
B|-------------------------------------------------|
G|-------------------------------------------------|
D|-------------------------------------------------| x3
A|-------------------------------------------------|
E|-0--0--------0--------0-----------------4--4--4--|
A|-0--0--4--3--0--4--3--0--4--3--4--3--0-----------|
   *  *        *        *              *
E|-------------------------------------------------|
B|-------------------------------------------------|
G|-------------------------------------------------|
D|-------------------------------------------------|
A|-------4--3-----4--3-----4--3--4--3--------------|
E|-0--0--4--3--0--4--3--0--4--3--4--3-----4--4--4--|
A|-0--0--4--3--0--4--3--0--4--3--4--3--0-----------|
   *  *        *        *              *
  Guitar 2 (w/ dist)

E|-------------------------------------------------|
B|-------------------------------------------------|
G|-------------------------------------------------| x3
D|-------6--5-----6--5-----6--5--6--5-----6--6--6--| 
A|-------------------------------------------------|
E|-0--0--------0--------0--------------------------|
A|-0--0--------0--------0--------------0-----------|
   *  *        *        *              *
E|-------------------------------------------------|
B|-------------------------------------------------|
G|-------------------------------------------------|
D|-------6--5-----6--5-----6--5--6--5-----6--6--6--|
A|-------x--x-----x--x-----x--x--x--x--------------|
E|-0--0--4--3--0--4--3--0--4--3--4--3--------------|
A|-0--0--------0--------0--------------0-----------|
   *  *        *        *              *

II. Guitars 1 and 2 (w/ dist)

E|-------------------------------------------|
B|-------------------------------------------|
G|-------------------------------------------|
D|-------------------------------------------| x3
A|-------------------------------------------|
E|-------------------------------------------|
A|-0--0--1p-0--0--1p-0--0--1p-0--0---0---0---|
   *  *        *        *        *   *   *

III. Guitar 1 (w/ dist)

E|-------------------------------------------------|
B|-------------------------------------------------|
G|-------------------------------------------------|
D|----------------------------------------6--6--6--|
A|-------4--3-----4--3-----4--3--4--3-----x--x--x--|
E|-------4--3-----4--3-----4--3--4--3-----4--4--4--|
A|-0--0--4--3--0--4--3--0--4--3--4--3--0-----------|
   *  *        *        *              *

     Guitar 2 (w/ dist)

E|-------------------------------------------------|
B|-------------------------------------------------|
G|-------------------------------------------------|
D|-------------------------------------------------|
A|-------4--3-----4--3-----4--3--4--3--------------|
E|-------4--3-----4--3-----4--3--4--3--------------|
A|-0--0--4--3--0--4--3--0--4--3--4--3--0-----------|
   *  *        *        *              *

IV. Guitars 1 and 2 (w/ dist)

E|-------------------------------------------|-----------------------------------------------|
B|-------------------------------------------|-----------------------------------------------|
G|-------------------------------------------|-----------------------------------------------|
D|----------------8--7-----------------------|----------------8--7---------------------------|
A|-------4--3-----x--x-----------------------|-------4--3-----x--x------------------`5`5`5`5`|
E|-------4--3-----6--5-----------------------|-------4--3-----6--5---------------------------|
A|-0--0--4--3--0--------0--1p-0--0---0---0---|-0--0--4--3--0--------0--1p-0--0---0-----------|
   *  *        *                 *   *   *     *  *        *                 *   *
E|-------------------------------------------|-------------------------------------------------|
B|-------------------------------------------|-------------------------------------------------|
G|-------------------------------------------|-------------------------------------------------|
D|----------------8--7-----------------------|----------------------------------------6--6--6--|
A|-------4--3-----x--x-----------------------|-------4--3-----4--3-----4--3--4--3-----x--x--x--|
E|-------4--3-----6--5-----------------------|-------4--3-----4--3-----4--3--4--3-----4--4--4--|
A|-0--0--4--3--0--------0--1p-0--0---0---0---|-0--0--4--3--0--4--3--0--4--3--4--3--0-----------|
   *  *        *                 *   *   *     *  *        *        *              *

-----------------------------------------------------------------------------------------
|                                   VERSE (00:31-00:41)                                 |
-----------------------------------------------------------------------------------------

Guitars 1 and 2 (w/ dist)

E|---------------|---------------------|--------------|-----------------------------|
B|---------------|---------------------|--------------|-----------------------------|
G|---------------|---------------------|--------------|-----------------------------|
D|---------------|---------------------|--------------|-----------------------------|
A|-1-------------|-------1-------------|-1---------1--|-1---1---1--1----------------|
E|-1---------1-1-|-1--1--1---------1-1-|-1---------1--|-1---1---1--1----------------|
A|---------------|---------------------|--------------|-----------------------------|
             * *   *  *            * *             *    *   *   *   
                    
-----------------------------------------------------------------------------------------
|                                 PRE-CHORUS (00:41-00:52)                              |
-----------------------------------------------------------------------------------------

I. Guitars 1 and 2 (w/ dist)

E|-----------------------------------------------------|
B|-----------------------------------------------------|
G|-----------------------------------------------------|
D|-----------------------------------------------------|
A|-----------------1--------1-----1--------1h-2--1h-2--|
E|-1-1-1-1-1-1-1-1-1--1--1--1--1--1--1--1--1h-2--1h-2--|
A|-----------------------------------------------------|
   * * * * * * * *    *  *     *     *  *

II. Guitar 1 (w/ dist)

E|-------------------------------------------------------------|
B|-------------------------------------------------------------|
G|-------------------------------------------------------------|
D|-------------------------------------------------------------|
A|-6-6-6-6-6-6-5-5-5-5-5-5---------------------------------5~~~|
E|-------------------------6-6-6-6-6-6-7-7-7-7-7-7-8-8-8-8-----|
A|-------------------------------------------------------------|
                                                           +

   Guitar 2 (w/ dist)

E|-----------------------------------------------------------------------|
B|-----------------------------------------------------------------------|
G|-----------------------------------------------------------------------|
D|-----------------------------------------------------------------------|
A|-9-9-9-9-9-9-8-8-8-8-8-8-------------------------------------------8~~~|
E|-------------------------9-9-9-9-9-9-10-10-10-10-10-10-11-11-11-11-----|
A|-----------------------------------------------------------------------|
                                                                     +

III. Guitars 1 and 2 (w/ dist)

E|-----------------------------------------------------|
B|-----------------------------------------------------|
G|-----------------------------------------------------|
D|-----------------------------------------------------|
A|-----------------1--------1-----1--------1h-2--1h-2--|
E|-1-1-1-1-1-1-1-1-1--1--1--1--1--1--1--1--1h-2--1h-2--|
A|-----------------------------------------------------|
   * * * * * * * *    *  *     *     *  * 
E|-----------------------------------------------|
B|-----------------------------------------------|
G|-----------------------------------------------|
D|-----------------------------------------------|
A|-1--------1--------1--------1-----0-----0------|
E|-1--1--1--1--1--1--1--1--1--1--1--0--1--0------|
A|-----------------------------------------------|
      *  *     *  *     *  *     *     *  *
 
-----------------------------------------------------------------------------------------
|                                   CHORUS (00:52-01:12)                                |
-----------------------------------------------------------------------------------------

Guitar 1 (w/ dist)

E|----------------------------------|------------------------------------|
B|----------------------------------|------------------------------------|
G|----------------------------------|------------------------------------|
D|-9-s10s9--7-s9-s7-----------------|------------------------------------|
A|-x--x--x--x--x--x--6----3----2----|s9--9--9--10--10--10--3--------1----|
E|-7-s8-s7--5-s7-s5--6----3----2----|s9--9--9--10--10--10--3----3---1----|
A|-------------------6----3----2----|s9--9--9--10--10--10--3----3---1----|
                                                                *
E|----------------------------------|------------------------------------|
B|----------------------------------|------------------------------------|
G|----------------------------------|------------------------------------|
D|-9-s10s9--7-s9-s7-------5----4----|-4--4--4--5--5--5--10---10--10-11---|
A|-x--x--x--x--x--x--6----x----x----|-x--x--x--x--x--x--x----x---x--x----|
E|-7-s8-s7--5-s7-s5--6----3----2----|-2--2--2--3--3--3--8----8---8--9----|
A|-------------------6--------------|------------------------------------|

E|----------------------------------|------------------------------------|
B|----------------------------------|------------------------------------|
G|----------------------------------|------------------------------------|
D|-9-s10s9--7-s9-s7-----------------|------------------------------------|
A|-x--x--x--x--x--x--6----3----2----|s9--9--9--10--10--10--3--------1----|
E|-7-s8-s7--5-s7-s5--6----3----2----|s9--9--9--10--10--10--3----3---1----|
A|-------------------6----3----2----|s9--9--9--10--10--10--3----3---1----|
                                                                *
E|----------------------------------|------------------------------------|
B|----------------------------------|------------------------------------|
G|----------------------------------|------------------------------------|
D|-9--10-9--7--9--7-------5----4----|-4--4--4--5--5--5--10---------------|
A|-x--x--x--x--x--x--6----x----x----|-x--x--x--x--x--x--x----------------|
E|-7--8--7--5--7--5--6----3----2----|-2--2--2--3--3--3--8----0---0---0---|
A|-------------------6--------------|------------------------0---0---0---|
                                                             *   *   *

Guitar 2 (w/ dist)

E|----------------------------------|------------------------------------|
B|----------------------------------|------------------------------------|
G|----------------------------------|------------------------------------|
D|-9-s10s9--7-s9-s7-----------------|------------------------------------|
A|-x--x--x--x--x--x--6----3----2----|s9--9--9--10--10--10--3--------1----|
E|-7-s8-s7--5-s7-s5--6----3----2----|s9--9--9--10--10--10--3----3---1----|
A|-------------------6----3----2----|s9--9--9--10--10--10--3----3---1----|
                                                                *
E|----------------------------------|------------------------------------|
B|----------------------------------|------------------------------------|
G|----------------------------------|------------------------------------|
D|-9-s10s9--7-s9-s7-----------------|------------------------------------|
A|-x--x--x--x--x--x--6----3----2----|s9--9--9--10--10--10--3---------1---|
E|-7-s8-s7--5-s7-s5--6----3----2----|s9--9--9--10--10--10--3---3--3--1---|
A|-------------------6----3----2----|s9--9--9--10--10--10--3---3--3--1---|
                                                               *  *
E|----------------------------------|------------------------------------|
B|----------------------------------|------------------------------------|
G|----------------------------------|------------------------------------|
D|-9-s10s9--7-s9-s7-----------------|------------------------------------|
A|-x--x--x--x--x--x--6----3----2----|s9--9--9--10--10--10--3--------1----|
E|-7-s8-s7--5-s7-s5--6----3----2----|s9--9--9--10--10--10--3----3---1----|
A|-------------------6----3----2----|s9--9--9--10--10--10--3----3---1----|
                                                                *
E|----------------------------------|--------------------------------------|
B|----------------------------------|--------------------------------------|
G|----------------------------------|--------------------------------------|
D|-9-s10s9--7-s9-s7-----------------|--------------------------------------|
A|-x--x--x--x--x--x--6----3----2----|s9--9--9--10--10--10--3---------------|
E|-7-s8-s7--5-s7-s5--6----3----2----|s9--9--9--10--10--10--3---0---0---0---|
A|-------------------6----3----2----|s9--9--9--10--10--10--3---0---0---0---|
                                                               *   *   *

-----------------------------------------------------------------------------------------
|                                  INTERLUDE (01:12-01:33)                              |
-----------------------------------------------------------------------------------------

I. Guitars 1 and 2 (w/ dist)

E|-------------------------------------------|
B|-------------------------------------------|
G|-------------------------------------------|
D|-------------------------------------------| x3
A|-------------------------------------------|
E|-------------------------------------------|
A|-0--0--1p-0--0--1p-0--0--1p-0--0---0---0---|
   *  *        *        *        *   *   *

II. Guitar 1 (w/ dist)

E|-------------------------------------------------|
B|-------------------------------------------------|
G|-------------------------------------------------|
D|----------------------------------------6--6--6--|
A|-------4--3-----4--3-----4--3--4--3-----x--x--x--|
E|-------4--3-----4--3-----4--3--4--3-----4--4--4--|
A|-0--0--4--3--0--4--3--0--4--3--4--3--0-----------|
   *  *        *        *              *

   Guitar 2 (w/ dist)

E|-------------------------------------------------|
B|-------------------------------------------------|
G|-------------------------------------------------|
D|-------------------------------------------------|
A|-------4--3-----4--3-----4--3--4--3--------------|
E|-------4--3-----4--3-----4--3--4--3--------------|
A|-0--0--4--3--0--4--3--0--4--3--4--3--0-----------|
   *  *        *        *              *

III. Guitars 1 and 2 (w/ dist)

E|-------------------------------------------|-----------------------------------------------|
B|-------------------------------------------|-----------------------------------------------|
G|-------------------------------------------|-----------------------------------------------|
D|----------------8--7-----------------------|----------------8--7---------------------------|
A|-------4--3-----x--x-----------------------|-------4--3-----x--x------------------`5`5`5`5`|
E|-------4--3-----6--5-----------------------|-------4--3-----6--5---------------------------|
A|-0--0--4--3--0--------0--1p-0--0---0---0---|-0--0--4--3--0--------0--1p-0--0---0-----------|
   *  *        *                 *   *   *     *  *        *                 *   *
E|-------------------------------------------|-------------------------------------------------|
B|-------------------------------------------|-------------------------------------------------|
G|-------------------------------------------|-------------------------------------------------|
D|----------------8--7-----------------------|----------------------------------------6--6--6--|
A|-------4--3-----x--x-----------------------|-------4--3-----4--3-----4--3--4--3-----x--x--x--|
E|-------4--3-----6--5-----------------------|-------4--3-----4--3-----4--3--4--3-----4--4--4--|
A|-0--0--4--3--0--------0--1p-0--0---0---0---|-0--0--4--3--0--4--3--0--4--3--4--3--0-----------|
   *  *        *                 *   *   *     *  *        *        *              *

-----------------------------------------------------------------------------------------
|                                   VERSE 2 (01:33-01:43)                               |
-----------------------------------------------------------------------------------------
                                        same as VERSE
-----------------------------------------------------------------------------------------
|                                 PRE-CHORUS 2 (01:43-01:54)                            |
-----------------------------------------------------------------------------------------
                                      same as PRE-CHORUS
-----------------------------------------------------------------------------------------
|                                   CHORUS 2 (01:54-02:14)                              |
-----------------------------------------------------------------------------------------
                                       same as CHORUS
-----------------------------------------------------------------------------------------
|                                    BRIDGE (02:14-02:50)                               |
-----------------------------------------------------------------------------------------

I. Guitars 1 and 2 (w/ dist) - 8 bars empty, then:

E|-------------------------------------------|
B|-------------------------------------------|
G|-------------------------------------------|
D|-------------------------------------------| x3
A|-------------------------------------------|
E|-------------------------------------------|
A|-0--0--1p-0--0--1p-0--0--1p-0--0---0---0---|
   *  *        *        *        *   *   *
E|-------------------------------------------|
B|-------------------------------------------|
G|-------------------------------------------|
D|-------------------------------------------|
A|-------4--3-----4--3-----4--3--------------|
E|-------4--3-----4--3-----4--3--------------|
A|-0--0--4--3--0--4--3--0--4--3--0---0---0---|
   *  *        *        *        *   *   *
E|-------------------------------------------|
B|-------------------------------------------|
G|-------------------------------------------|
D|-------------------------------------------| x3
A|-------------------------------------------|
E|-------------------------------------------|
A|-0--0--1p-0--0--1p-0--0--1p-0--0---0---0---|
   *  *        *        *        *   *   *

II. Guitar 1 (w/ dist)

E|------------------------------------------------|------------------------------|
B|------------------------------------------------|------------------------------|
G|------------------------------------------------|------------------------------|
D|-------------------------------------9-s10s9--7-|s9-s7-------------------------|
A|-------4--3-----4--3-----4--3--4--3--x--x--x--x-|-x--x--6----3----2----9----10-|
E|-------4--3-----4--3-----4--3--4--3--7-s8-s7--5-|s7-s5--6----3----2----9----10-|
A|-0--0--4--3--0--4--3--0--4--3--4--3-------------|-------6----3----2----9----10-|
   *  *        *        *      
E|-----------------------------------|
B|-----------------------------------|
G|-----------------------------------|
D|-----------------------------------|
A|---3--------------------1----------|
E|---3--------------------1----------|
A|---3----1-1-1-1-1-1-1-1-1----------|
          * * * * * * * *

   Guitar 2 (w/ dist)

E|------------------------------------------------|------------------------------|
B|------------------------------------------------|------------------------------|
G|------------------------------------------------|------------------------------|
D|-------------------------------------9-s10s9--7-|s9-s7-----------------4----5--|
A|-------4--3-----4--3-----4--3--4--3--x--x--x--x-|-x--x--6----3----2----s----s--|
E|-------4--3-----4--3-----4--3--4--3--7-s8-s7--5-|s7-s5--6----3----2----2----3--|
A|-0--0--4--3--0--4--3--0--4--3--4--3-------------|-------6----3----2------------|
   *  *        *        *         
E|-----------------------------------|
B|-----------------------------------|
G|-----------------------------------|
D|-----------------------------------|
A|---3--------------------1----------|
E|---3--------------------1----------|
A|---3----1-1-1-1-1-1-1-1-1----------|
          * * * * * * * *

-----------------------------------------------------------------------------------------
|                                   CHORUS 3 (02:50-03:12)                              |
-----------------------------------------------------------------------------------------
                                        same as CHORUS

            
            
Suggest correction
Creating personal tab
Creating personal tab
You can edit any tab online and save it as your Personal.

You can edit, replace or remove any tab part or add personal notes – all changes will be seen only by you.

Personal tabs can be accessed anytime from any device, even offline.
Learn more »
Give kudos to tab author, rate the tab!
1 2 3 4 5
comments
print report bad tab
guest
You may want to rate the tab now too:
select rating
Wanna post a correction for this tab? Suggest correction