Oops, an error
Loading. Please wait.

Estrellas En Mi Cielo tab

19 views 1 this week
no commentswrite comment
1 2 3 4 5
3 more votes to show rating
add to favorites
×
Save as Personal and add changes to this tab that will be seen only by you. Learn more ›
×
You can save this tab as Personal to edit and correct it or add notes. All changes will be seen only by you. Learn more »
launch autoscroll
font size
0
reset
how to read this tab
guitar tuner
edit
Autoscroll
slow
fast
+/-
esc
set tempo
stop
INTRO

e|----------5-7-----5-7-----------5-7-----5-7---|
B|--9-7-5-------7-5-----7--9-7-5------7-5-------|
G|--------7----------------------7--------------|

e|--------------7----------7------------------7-------7-9--|
B|10-9-7---10---9-9-10---10-10-9-7---10---9-10------|
G|--------9-----------------------------9----------------|


Es que vas pegado del color
que te dio esa dosis de amor-ficción.

SOL
Los peces en el agua,
FA
Las estrellas en el cielo,
MI
y la suma de la suma, de la suma
    RE
será todo, todo, todo, todo, todo
todo lo que obtengas.

SOL  FA               MI
Eh, no seas colgado y descolgá,
RE
que todo lo que quieres ser
SOL         FA         MI
enfrente de tu cara lo tenés.

e|----------5-7-----5-7-----------5-7-----5-7~--|
B|--9-7-5-------7-5-----7--9-7-5------7-5-------|
G|--------7----------------------7--------------|


e|--------------7----------7------------------7-------7-9--|
B|10-9-7---10---9-9-10---10-10-9-7---10---9-10------|
G|--------9-----------------------------9----------------|
Es que se te aplaca el corazón,
quien te dice que mañana no seas vos.

SOL
Los peces en el agua,
DA
se comen entre ellos,
MI
y la suma de la suma, de la suma
    RE
será todo, todo, todo, todo, todo
todo lo que obtengas.

Eh, no seas colgado y descolgá,
que todo lo que quieres ser
enfrente de tu cara lo tenés.

Eh, no seas quemado y descolgá,
que todo lo que quieres ser
enfrente de tu cara lo tenés.

            
            
Suggest correction
Creating personal tab
Creating personal tab
You can edit any tab online and save it as your Personal.

You can edit, replace or remove any tab part or add personal notes – all changes will be seen only by you.

Personal tabs can be accessed anytime from any device, even offline.
Learn more »
Give kudos to tab author, rate the tab!
1 2 3 4 5
comments
print report bad tab
guest
Wanna post a correction for this tab? Suggest correction