Oops, an error
Loading. Please wait.

Baby You Wouldnt Last A Minute On The Creek bass

version 4
version 4

Whole song

Interactive

by Chiodos
4,453 views 3 this week
1 commentread comment
1 2 3 4 5
x 3
add to favorites
×
Save as Personal and add changes to this tab that will be seen only by you. Learn more ›
×
You can save this tab as Personal to edit and correct it or add notes. All changes will be seen only by you. Learn more »
launch autoscroll
font size
0
reset
guitar tuner
edit
Autoscroll
slow
fast
+/-
esc
set tempo
stop
Author
Artist: Chiodos
Song: Baby, you wouldn't last a minute on the creek
Tabbed by: Dylan Huff
This is my first tab and i'm only fourteen but i'm pretty certain this is all correct.
If you have any corrections e-mail me at Shorty1372@msn.com
Any comments and ratings would be greatly appreciated thanks (:


Intro

G|-------------------------|
D|----7h8-5h7--3h5-3p2-2---|
A|-55-------------------3--|
D|-------------------------|

G|----------------------|
D|----7h8-5h7--3h5-3p2--|
A|-55-------------------|
D|----------------------|

Verse I

G|-------------------------|
D|-------------------------|
A|-5555-5555-11------------|
D|--------------5555-5555--|

G|-------------------------|
D|-------------------------|
A|-5555-5555-11------------|
D|--------------5555-5555--|

G|-------------------------|
D|-------------------------|
A|-5555-5555-11------------|
D|--------------5555-5555--|

G|-------------------------|
D|-------------------------|
A|-5555-5555-11------------|
D|--------------5555-5555--|

Verse II

G|-------------------------------|
D|-------------------------------|
A|-5555----5555----1-11-/888888--|
D|-----0000----0000--------------|

G|--------------------------------|
D|--------------------------------|
A|-5555----5555----5-55-333-5555--|
D|-----0000----0000---------------|

G|-------------------------------|
D|-------------------------------|
A|-5555----5555----1-11-/888888--|
D|-----0000----0000--------------|

G|-------------------------------|
D|-------------------------------|
A|-5555----5555-----5555-333333--|
D|-----0000----0000--------------|

Chorus

G|------------------------------------|
D|-------------------------0-3p0-2p0--|
A|-5-5-55-53-3-33-11-11-11------------| 
                

            
            
Suggest correction
Creating personal tab
Creating personal tab
You can edit any tab online and save it as your Personal.

You can edit, replace or remove any tab part or add personal notes – all changes will be seen only by you.

Personal tabs can be accessed anytime from any device, even offline.
Learn more »
Give kudos to tab author, rate the tab!
1 2 3 4 5
comments
print report bad tab
1 comment total.
0 reply
BleachTeetz 82 Jun 03, 2011 06:21 AM

Loved It. You Did Well :'D Gotta Love a Chiodos Bass Tab

guest
You may want to rate the tab now too:
select rating
Wanna post a correction for this tab? Suggest correction