Oops, an error
Loading. Please wait.

Baby You Wouldnt Last A Minute On The Creek tab

version 2
version 2

Whole song

Interactive

by Chiodos
7,427 views 6 this week
2 commentsread comments
1 2 3 4 5
x 3
add to favorites
×
Save as Personal and add changes to this tab that will be seen only by you. Learn more ›
×
You can save this tab as Personal to edit and correct it or add notes. All changes will be seen only by you. Learn more »
launch autoscroll
font size
0
reset
how to read this tab
guitar tuner
edit
Autoscroll
slow
fast
+/-
esc
set tempo
stop
This tab is about 95% right, I tabbed it with the acoustic version so I could hear some 
better then went back and made changes while listening to the real version.

intro

e|-----5---3---1---0---1---3---1-----1---1-------1---1-----1---|
b|---3---3---3---3---3---3---3-----3---3---3---3---3---3-----3-|
g|-------------------------------3-----------2-----------2-----|
d|-0-----------------------------------------------------------|
a|-------------------------------------------------------------|
D|-------------------------------------------------------------|

"and just walk away"

E|---------------------------------------------------------------|
B|---------------------------------------------------------------|
G|-7--7--7--7----9--9--9--9---10-10---10-10-10-10---9--9--9--9---|
D|-7--7--7--7----7--7--7--7---8--8----10-10-10-10---9--9--9--9---|
A|-5--5--5--5----7--7--7--7---8--8----8--8--8--8----7--7--7--7---|
D|---------------------------------------------------------------|

E|---------------------------------------------------------------|
B|------------------------------------10-10-10-10---8--8--8--8---|
G|-7--7--7--7----9--9--9--9---10-10---10-10-10-10---9--9--9--9---|
D|-7--7--7--7----7--7--7--7---8--8----8--8--8--8----7--7--7--7---|
A|-5--5--5--5----7--7--7--7---8--8----8--8--8--8----7--7--7--7---|
D|---------------------------------------------------------------|


"turn around and head in different directions"

E|--------------------------------------------------|
B|--------------------------------------------------|
G|-7--7--7--7--7--7--14-14-14-14-14-14-12-12-12-12--|
D|--------------------------------------------------|
A|-5--5--5--5--5--5--12-12-12-12-12-12-10-10-10-10--|
D|--------------------------------------------------|

E|--------------------------------------------------|
B|--------------------------------------------------|
G|-10-10-10-10-10-10-12-12-12-12-12-12-5--5--5--5---|
D|--------------------------------------------------|
A|-8--8--8--8--8--8--10-10-10-10-10-10-3--3--3--3---|
D|--------------------------------------------------|

E|--------------------------------------------------|
B|--------------------------------------------------|
G|-7--7--7--7--7--7--14-14-14-14-14-14-12-12-12-12--|
D|--------------------------------------------------|
A|-5--5--5--5--5--5--12-12-12-12-12-12-10-10-10-10--|
D|--------------------------------------------------|

E|--------------------------------------------------|
B|--------------------------------------------------|
G|-17-17-17-17-17-17-19-19-19-19-19-19-19-19-19-19--|
D|--------------------------------------------------|
A|-15-15-15-15-15-15-17-17-17-17-17-17-17-17-17-17--|
D|--------------------------------------------------|


"we said what we feel then we stop ourselves"
E|-------------------------------------------------|
B|-------------------------------------------------|
G|-7--7--7--7--x--x--x--x--7--7--7--7--x--x--x--x--|
D|-------------x--x--x--x--------------x--x--x--x--|
A|-5--5--5--5--x--x--x--x--5--5--5--5--x--x--x--x--|
D|-0--0--0--0--x--x--x--x--0--0--0--0--x--x--x--x--|

E|------------------------------------|
B|------------------------------------|
G|-3---3--3--3---10--10-10-10--14-14--|
D|------------------------------------|
A|-1---1--1--1---8---8--8--8---12-12--|
D|------------------------------------|

E|-------------------------------------------------|
B|-------------------------------------------------|
G|-7--7--7--7--x--x--x--x--7--7--7--7--x--x--x--x--|
D|-------------x--x--x--x--------------x--x--x--x--|
A|-5--5--5--5--x--x--x--x--5--5--5--5--x--x--x--x--|
D|-0--0--0--0--x--x--x--x--0--0--0--0--x--x--x--x--|

E|--------------------------------|
B|--------------------------------|
G|-7--7-7-7--5---5--5--5--5-5-5-5-|
D|-7--7-7-7--5---5--5--5--5-5-5-5-|
A|-5--5-5-5--3---3--3--3--3-3-3-3-|
D|--------------------------------|

"this is probably the best not to mention the worst idea"

E|--------------------------------------------------------------|
B|--------------------------------------------------------------|
G|-7--7--7-7-7-5--5-5--5-5-5-5-7-7-x-7/9-9-x-9/10-10x-----------|
D|-7--7--7-7-7-5--5-5--5-5-5-5-----x-------x--------x-----------|
A|-5--5--5-5-5-3--3-3--3-3-3-3-5-5-x-5/7-7-x-7/8--8-x-0-3p0-2p0-|
D|-----------------------------0-0-x-0-0-0-x-0-0--0-x-0-3p0-2p0-|

E|---------------------------------------------------------------------|
B|---------------------------------------------------------------------|
G|(7)-7--7-7-7-5--5-5--5-5-5-5-10-10-10-9-9-9-12-12-12-5-5-5-5-5-5-5-5-|
D|(7)-7--7-7-7-5--5-5--5-5-5-5-----------------------------------------|
A|(5)-5--5-5-5-3--3-3--3-3-3-3-8--8--8--7-7-7-10-10-10-3-3-3-3-3-3-3-3-|
D|---------------------------------------------------------------------|

B|--------------------------------------------------------------|
G|-7--7--7-7-7-5--5-5--5-5-5-5-7-7-x-7/9-9-x-9/10-10x-----------|
D|-7--7--7-7-7-5--5-5--5-5-5-5-----x-------x--------x-----------|
A|-5--5--5-5-5-3--3-3--3-3-3-3-5-5-x-5/7-7-x-7/8--8-x-0-3p0-2p0-|
D|-----------------------------0-0-x-0-0-0-x-0-0--0-x-0-3p0-2p0-|

E|-------------------------------------------------------------------------|
B|-------------------------------------------------------------------------|
G|(7)-7--7-7-7-5--5-5--5-5-5-5-10-10-10-10-14-14-14-14-12-12-12-12-5-5-5-5-|
D|(7)-7--7-7-7-5--5-5--5-5-5-5---------------------------------------------|
A|(5)-5--5-5-5-3--3-3--3-3-3-3-8--8--8--8--12-12-12-12-10-10-10-10-3-3-3-3-|
D|-------------------------------------------------------------------------|

"ignore what we felt, overlooking what we've done"
E|----------------------------------------------------------------------|
B|----------------------------------------------------------------------|
G|-7--7--x--7--7--7--x--7--7--7--x--7--7--7--x--7--9--9--x--9--9--9--x--|
D|-7--7--x--7--7--7--x--7--7--7--x--7--7--7--x--7--7--7--x--7--7--7--x--|
A|-5--5--x--5--5--5--x--5--5--5--x--5--5--5--x--5--7--7--x--7--7--7--x--|
D|----------------------------------------------------------------------|

E|-------------------------------------------------------------------------|
B|-------------------------------------------------------------------------|
G|-9--9--9--x--9--9--9--x--9--10-10-x--10-10-10-x--10-10-10-x--10-10-10-x--|
D|-7--7--7--x--7--7--7--x--7--10-10-x--10-10-10-x--10-10-10-x--10-10-10-x--|
A|-7--8--8--x--8--7--7--x--7--8--8--x--8--8--8--x--8--8--8--x--8--8--8--x--|
D|-------------------------------------------------------------------------|

E|---------------------------------------|
B|---------------------------------------|
G|-10-12-12-x-12-12-12-x-12-5-5-x-5-5-5--|
D|-10-10-10-x-10-10-10-x-10-5-5-x-5-5-5--|
A|-8--10-10-x-10-10-10-x-10-3-3-x-3-3-3--|
D|---------------------------------------|


breakdown / intro stuff again then...

"like we never knew each other at allllll"

E|---------------------------------------------|
B|---------------------------------------------|
G|------------10-10-10-10---9-9-x-12-12-12-12--|
D|------------------------------x--------------|
A|-0-0-0-0-0--8--8--8--8----7-7-x-10-10-10-10--|
D|-0-0-0-0-0-----------------------------------|

E|---------------------------------------------|
B|---------------------------------------------|
G|------------14-14-14-14-x-12-x-10-x-12-10-9--|
D|------------------------x----x----x----------|
A|-0-0-0-0-0--10-10-10-10-x-10-x-8--x-10-8--7--|
D|-0-0-0-0-0-----------------------------------|


"all egos aside, what do you say?"

E|----------------------------------------------------------|
B|----------------------------------------------------------|
G|----------------------------------------------------------|
D|----------------------------------------------------------|
A|-0-0-0-0----8-7-8-10-8-7-3/5--0-0-0-0-8-7-8-10-12-10-8-7--|
D|-0-0-0-0----------------------0-0-0-0---------------------|

(end of last one)
E|---------------------------------|
B|---------------------------------|
G|---------------------------------|
D|---------------------------------|
A|-0-0-0-0-12-10-8-7-7~--8~-7~-3~--|
D|-0-0-0-0-------------------------|


go back to playing the parts from earlier, and then outro:

E|-------------------------|
B|-------------------------|
G|-7-7-7-7-----------------|
D|-------------------------|
A|-5-5-5-5---------0-0-0-0-|
D|-----------------0-0-0-0-|

            
            
Suggest correction
Creating personal tab
Creating personal tab
You can edit any tab online and save it as your Personal.

You can edit, replace or remove any tab part or add personal notes – all changes will be seen only by you.

Personal tabs can be accessed anytime from any device, even offline.
Learn more »
Give kudos to tab author, rate the tab!
1 2 3 4 5
comments
print report bad tab
2 comments total.
0 reply
sexlove45 110 Jan 31, 2007 01:42 PM

good job there are a few parts that are somewhat incorect but you had a good idea of it

0 reply
paddytaz 82 Feb 27, 2007 09:02 AM

Very good tab, not perfect but definitly 4 stars.

guest
You may want to rate the tab now too:
select rating
Wanna post a correction for this tab? Suggest correction