Oops, an error
Loading. Please wait.

If I Cut My Hair Hawaii Will Sink tab

version 2
version 2

Whole song

Interactive

by Chiodos
1,337 views 1 this week
no commentswrite comment
1 2 3 4 5
x 3
add to favorites
×
Save as Personal and add changes to this tab that will be seen only by you. Learn more ›
×
You can save this tab as Personal to edit and correct it or add notes. All changes will be seen only by you. Learn more »
launch autoscroll
font size
0
reset
how to read this tab
guitar tuner
edit
Autoscroll
slow
fast
+/-
esc
set tempo
stop
Author
Difficulty
this is all in standard tuning

sorry about my laziness, i didnt want to have to write every single picked note
the timing is pretty easy

If I Cut My Hair, Hawaii Will Sink

Chiodos

Bone Palace Ballet


Intro 0:00
E----|
B-1~-|
G-2~-|
D-2~-|
A-0~-|
E----|

Verse 0:06 -Both Guitars-
"You keep tugging on my shirt..."
E---------------------|
B-1~--1~--1~--1~------|
G-2~--2~--2~--2~------|
D-2~--2~--2~--2~------|
A-0~--2~--0~--X~------|
E--------------4~-----|

Pre-Chorus 0:30
"Fit to be tied!..."
E---------------------|
B---------------------|
G-2~--4~--5~--10~-----|
D-2~--5~--5~--10~-----|
A-0~--2~--3~---8~-----|
E---------------------|

Chorus [Part 1]  0:42
"I feel weak..."
E---------------------------------|
B---------------------------------|
G------5-5------------------------|
D-7-7--5-5--6-6--9-9--10--10------|
A-7-7--3-3--7-7--9-9--10--10------|
E-5-5-------4-4--7-7---8---8------|

Chorus [Part 2] 0:54
"And I know what you're thinking..."
E-------------------------------------------------------------|
B-------------------------------------------------------------|
G-------------------------------------------------------------|
D-7-7--6-6--7-7--2-2--2-2----7-7--6-6--7-7--2-2--10--10-------|
A-7-7--7-7--7-7--2-2--2-2----7-7--7-7--7-7--2-2--10--10-------|
E-5-5--4-4--5-5--0-0--0-0----5-5--4-4--5-5--0-0---8---8-------|

Repeat Intro 1:06

Repeat Verse 1:12
"Now grow numb..."

Chorus [Part 1] 1:30
"I feel weak..."

Bridge Section 1:42 (Replaces Chorus [Part 2] second time around)
"And i know what you're thinking..."
E-------------------------|
B-------------------------|
G-------------------------|
D-7~--5~--6~--9~-10~------|
A-7~--5~--7~--9~-10~------|
E-5~--3~--4~--7~--8~------|

Outro/Bridge [continued]
"Sell it well!..."
E--------------------|
B--------------------|
G-----5~-------------|    

            
            
Suggest correction
Creating personal tab
Creating personal tab
You can edit any tab online and save it as your Personal.

You can edit, replace or remove any tab part or add personal notes – all changes will be seen only by you.

Personal tabs can be accessed anytime from any device, even offline.
Learn more »
Give kudos to tab author, rate the tab!
1 2 3 4 5
comments
print report bad tab
guest
You may want to rate the tab now too:
select rating
Wanna post a correction for this tab? Suggest correction