Oops, an error
Loading. Please wait.

No Hardcore Dancing In The Living Room bass

version 1
version 1

Whole song

Interactive

by Chiodos
3,300 views 1 this week
2 commentsread comments
1 2 3 4 5
1 last vote to show rating
add to favorites
×
Save as Personal and add changes to this tab that will be seen only by you. Learn more ›
×
You can save this tab as Personal to edit and correct it or add notes. All changes will be seen only by you. Learn more »
launch autoscroll
font size
0
reset
guitar tuner
edit
Autoscroll
slow
fast
+/-
esc
set tempo
stop
uh
i don play bass

this is my first tab

go easy!
>.<


|---------------|-------------------|
|---------------|-------------------|
|---------------|-------------------|
|--12-----------|---5---------------| x2

0:26 - 0:43


|--------------|-----------|
|--------------|-----------|
|--------------|-----------|
|-12--12--12---|-5--7--8---| x2

0:43 - 1:00

|----------------------------------|-----------------------------|
|----------------------------------|-----------------------------|
|----------------------------------|-----------------------------|
|-0-0--0-0--12--12-12--12-12-12-10-|-5-5--7-7--8-8--8-8--8-8-8-8-|

|----------------------------------|------------------------------|
|----------------------------------|------------------------------|
|----------------------------------|------------------------------|
|-0-0--0-0--12--12-12--12-12-12-10-|-5-5--7-7--8-8--8-8-7-7-8-8-0-|

1:00 - 1:18

(guitar riff) x2

on second time,


                 i've            resolved  upon  this course...
|-------| then   |------------|-------------|-----------------------|
|-------| wait   |------------|-------------|-----------------------|
|-------| a      |------------|-------------|-----------------------|
|--0-0--| bit    |-0-0---000--|--0-0---0-0--|-0-0---000---0-0---0-0-|


|------------------------|------------------------|
|------------------------|------------------------|
|------------------------|------------------------|
|-0-0---0-0---0-0---0-0--|-0-0---0-0---0-0---0-0--|

1:18 - 1:43

|-------------------------|
|-------------------------|
|-------------------------|
|-88---7777---1010---7777-| x3

on the fourth part,


realize      saaaaaaaaammeee moon
|-------------------------------|
|-------------------------------|
|-------------------------------|
|-88---7777---1212-1010-8888--0-|

1:43-1:59


2:00 - 2:07
guitar only

|-----|
|-----|
|-----|
|--0--|

a single note at

2:09                                      this part
                                          is really
                                           quick right
|----------------------|--------------------------------| h
|----------------------|--------------------------------| e
|------8------8-8------|----------------------8\--------| r
|--0--0----0-0-0-------|--7--77---7-7-7--7--00---| e----|   x2

|----------------------|-------------------------|
|----------------------|-------------------------|
|------8------8-8------|-----7-------7-7---------|
|--0--0----000-0-------|--7-7-----777-7----------|     x2

and then do it again, but with more sustain

2:10 - 3:07


|------------------|-------------|
|------------------|-------------|
|------------------|--8-8-8-8-8\-|
|--7-7-7-7-7-7-7-7-|-------------|

3:08 - 3:13


|----------------------------|-------------------------|
|----------------------------|-------------------------|
|----------------------------|-------------------------|
|--7--7--77--7-10-10-10-10\--|--33-22-33-22-3/5-5-5-55-| x2


|----------------------------|-------------------------|
|----------------------------|-------------------------|
|----------------------------|-------------------------|
|--7--7--77--7-10-10-10-10\--|-0-0-0000---3-3-3333-----|

|----------------------------|-------------------------|
|----------------------------|-------------------------|
|-1--1--1-1/5-3-1-1-3-1------|-1-1-1-1/5-3-1-1-3-1-----|
|----------------------------|-------------------------|

|----------------------------|-------------------------|
|----------------------------|-------------------------|
|----------------------------|-------------------------|
|--7--7--77--7-10-10-10-10\--|-0-0-0000---3-3-3333-----|

|----------------------------|-------------------------|
|----------------------------|-------------------------|
|-1--1--1-1/5-3-1-1-3-1------|-1-1-1-1/5-3-1-1-3-1-----|
|----------------------------|-------------------------|

|----------------------------|-------------------------|
|----------------------------|-------------------------|
|----------------------------|-------------------------|
|--7--7--77--7-10-10-10-10\--|-0-0-0000---3-3-3333-----|

|----------------------------|-0-----------------------|
|----------------------------|-0-----------------------|
|-0--------------------------|-0-----------------------|
|-0--------------------------|-0-----------------------|

3:13 - 3:55


fuck around

3:55 - 4:02


wait for guitar riff
to end

4:02 - 4:11


join in with

|-------------------------------------------------------------|
|-------------------------------------------------------------|
|--8-8--8-8--8--7-7--7-7--7--7-7--7-7--7--12-12--12-12--12----|
|-0----0----0--0----0----0--0----0----0--0------0------0------|  x4

4:12 - 4:44


guitar part again..

4:44 - 4:50

|------------------------------------------------|
|------------------------------------------------|
|-12-12-12--------12-12-12--------12-12-12-------|
|----------0-0-0-----------0-0-0-----------0-0-0-|

|---------------------|
|---------------------|
|-12-12-12--11-11-11--|
|---------------------|

|------------------------------------------------|
|------------------------------------------------|
|-12-12-12--------12-12-12--------12-12-12-------|
|----------0-0-0-----------0-0-0-----------0-0-0-|

|---------------------|
|---------------------|
|-12-12-12--11-11-11--|
|---------------------|

|------------------------------------------------|
|------------------------------------------------|
|-12-12-12--------12-12-12--------12-12-12-------|
|----------0-0-0-----------0-0-0-----------0-0-0-|

|------------------------|
|------------------------|
|-12-12-12--11-11-11--12\|
|------------------------|


FIN!

srry for mistakes, but u should be able to fix them pretty easy from here.

            
            
Suggest correction
Creating personal tab
Creating personal tab
You can edit any tab online and save it as your Personal.

You can edit, replace or remove any tab part or add personal notes – all changes will be seen only by you.

Personal tabs can be accessed anytime from any device, even offline.
Learn more »
Give kudos to tab author, rate the tab!
1 2 3 4 5
comments
print report bad tab
2 comments total.
0 reply
bassist6777 30 Jul 14, 2008 04:59 PM

great job!... it's not 100% correct but it a hell of a tab and i am glad you got one up of "no hardcore dancing in the living room" because i've been wanting to learn it...thanks alot

0 reply
weallfall 10 Jan 03, 2012 09:38 AM

4:12-4:44 the a string goes 8-7-10-12, not 8-7-7-12

guest
You may want to rate the tab now too:
select rating
Wanna post a correction for this tab? Suggest correction