Oops, an error
Loading. Please wait.

The Words Best Friend Become Redefined bass

version 3
version 3

Whole song

Interactive

by Chiodos
240 views 1 this week
1 commentread comment
1 2 3 4 5
3 more votes to show rating
add to favorites
×
Save as Personal and add changes to this tab that will be seen only by you. Learn more ›
×
You can save this tab as Personal to edit and correct it or add notes. All changes will be seen only by you. Learn more »
launch autoscroll
font size
0
reset
guitar tuner
edit
Autoscroll
slow
fast
+/-
esc
set tempo
stop
 (No bass, but I like playing along with this)
  
 (0:00-0:36)
G|------------------------------------------------------------------|
D|-------7-5-5----------------------------7-5-5-----5-5-5-7-8-8-7-7-|
A|-5-5-5-------8-8-7-7-7-8-7-7-4~~~-5-5-5-------8-8-----------------|
D|------------------------------------------------------------------|
          *Fast, slight vibrato^(instead of doing a trill)*
G|------------------------------------------------------------------|
D|-------7-5-5----------------------------7-5-5-----5-5-5-7-8-8-----|
A|-5-5-5-------8-8-7-7-7-8-7-7-4~~~-5-5-5-------8-8-------------3~~~|
D|------------------------------------------------------------------|
                                                        *Vibrato^*
G|------------------------------------------------------------------|
D|-------7-5-5----------------------------7-5-5-----5-5-5-7-8-8-7-7-|
A|-5-5-5-------8-8-7-7-7-8-7-7-4~~~-5-5-5-------8-8-----------------|
D|------------------------------------------------------------------|
                        *Vibrato^*
G|------------------------------------------------------------------|
D|-------7-5-5----------------------------7-5-5---------------------|
A|-5-5-5-------8-8-7-7-7-8-7-7-4~~~-5-5-5-------8-8-3~~~--------5~~~|
D|------------------------------------------------------------------|
                       *Vibrato^*           *Vibrato^*  (Fade out^)

I think you can find the optional piano part on here somewhere but decided
 to leave it out because it sounds odd with a bass.

(Piano + Lyrics) (0:54)
"I've been hiding in this bed for weeks from this.
 Throat's raw from screaming and I haven't said a word.
 The sky is calling, and the stars... they point to this"

 (1:10) ***Refer to Mike_Biro727 's version for this part, he nailed it!***
             Props man^^^ :D


 float..like..angels.." (Awesome "drop" back in!)
G|--------------------|---------------------------------------------------|
D|--------------------|---------------------------------------------------|
A|---REST-------------|---------------------------------------------------|
D|--------------------|-0~~000~000~000~0~0-5~~555~555~7-0~~000~000~000~0~0| 

G|----------------------------------------------------------|
D|----------------------------------------------------------|
A|----------------------------------------------------------|
D|-5-5-5-5-5-5-7-7-7-7-7-7-0~~000~000~000~0~0-5~~555~555~9~~|

              "and we'll stay like this forever"
G|--------------------------------------------|
D|--------------------------------------------|
A|--------------------------------------------|
D|-0~~000~000~000~0~0---5--5--5--5--7--7--7--7|


G|--------------------------------------------|
D|--------------------------------------------|
A|--------------------------------------------|
D|-0-0-00-00--0-0-00-00--0-0-00-00--0-0-00-00-|

"If your stomach feels weak, then my work here is..." 
G|---------------|
D|---------------| 
A|---------------| 
D|-0-0-0-00-00-0-| Repeat Once

  "DOOOOOOOOOOOOOONE! DOOOOOOOOOOOOOONE!"
G|----------------------------------------|
D|----------------------------------------|
A|----7-----7---7------7---9-----9---7----|
D|-0-0-00-00-0-0--00-00-0-0-00-00-0-0--00-|


"To hide from our twisted ways, 
I've been hiding in this bed..." 
G-----------------|
D|----------------|
A|----------------|
D|-00--0000-------| <-Play this as many times as needed. 

            
            
Suggest correction
Creating personal tab
Creating personal tab
You can edit any tab online and save it as your Personal.

You can edit, replace or remove any tab part or add personal notes – all changes will be seen only by you.

Personal tabs can be accessed anytime from any device, even offline.
Learn more »
Give kudos to tab author, rate the tab!
1 2 3 4 5
comments
print report bad tab
1 comment total.
0 reply
Pandasrule4ever 52 May 28, 2012 03:41 PM

Hey guys. I know this is WAYY off. I'll be doing some editing and revising of my tab.

guest
You may want to rate the tab now too:
select rating
Wanna post a correction for this tab? Suggest correction