Oops, an error
Loading. Please wait.

The Words Best Friend Become Redefined tab

version 6
version 6

Interactive

by Chiodos
1,462 views 3 this week
1 commentread comment
1 2 3 4 5
1 last vote to show rating
add to favorites
×
Save as Personal and add changes to this tab that will be seen only by you. Learn more ›
×
You can save this tab as Personal to edit and correct it or add notes. All changes will be seen only by you. Learn more »
launch autoscroll
font size
0
reset
how to read this tab
guitar tuner
edit
Autoscroll
slow
fast
+/-
esc
set tempo
stop
I did this by ear in drop B
starting from the thickest string B F# B E G# C#
some people do this in drop D or drop C but I like the deepnest of it
Comment if you like or dont or you dont understand something :)!

INTRO
C#  -----------------------------------------------------------|
G#  -----------------------------------------------------------|
E   -----------------------------------------------------------|
B   --------10-8-8---------------------------------------------|
F#  --8-8-8--------11-11-10-10-10-11-10-10--7h10p7h10p7h10-----|
B   -----------------------------------------------------------|

C#  ----------------------------------------------------|
G#  ----------------------------------------------------|
E   -------------------------------------------10-------|    repeat 4x
B   --------10-8-8-------8-8-8-10-11-11-10-10--x--------|    until |0:37|
F#  --8-8-8--------11-11-----------------------8--------|
B   ----------------------------------------------------|

RYTHEM Gtr. |0:19|
C#  ----------------------------------------------------|
G#  ----------------------------------------------------|
E   -------------10--10-13--12-----2h5p2h5p2h5----------|    repeat 2x
B   -------------x---x--x---x---------------------------|    until |0:37|
F#  -------------8---8--11--10--------------------------|
B   ----slide-up----------------------------------------|

PIANO
C#  ----------------------------------------------------------|
G#  ----------------------------------------------------------|
E   ----------------------------------------------------------|
B   ---------10-8------------------------10-8-----------------|
F#  --8----8------11-10-10h11p10--8----8------11-10-10h11p10--|
B   ----10--------------------------10------------------------|

C#  --------------------------------------------------------|
G#  --------------------------------------------------------|
E   --------------------------------------------------------|
B   --------10-8-----------------------10-8-----------------|
F#  --8-6-8------11-10-10h11p10--8-6-8------11-10-10h11p10--|
B   --------------------------------------------------------|

C#  --------------------------------------------------------------|
G#  --------------------------------------------------------------|
E   --------------------------------------------------------------|
B   ----------10-8------------------------10-8--------------------|
F#  ---8----8------11-10-10h11p10--8----8------11-10-10h11p10-----|
B   -----11--------------------------11---------------------------|

       0:49 (PIANO)
C#  ------------------------------------------------------|
G#  ------------------------------------------------------|   this piano
E   ------------------------------------------------------|    part was
B   ------------------------10----------------------------|    really hard
F#  --8----8-10-11-10-11-13----13-11-10-11-13-11-10-8~----|   so i didnt do
B   ----10------------------------------------------------|    it exact
                                                           do (PIANO PART)
           1:43                                                 4 times

"....Together we will float... like... angels!...."
C#  -----------------------------------------------------|
G#  -----------------------------------------------------|
E   --10-8-10~-10-12-8~-8\5~-5--3-5~-5-6--6-8------------|   repeat 2x
B   --x--------------------------------------------------|
F#  --8--------------------------------------------------|
B   -----------------------------------------------------|
           2:23
C#  ------------------------------------------------------|
G#  ------------------------------------------------------|
E   ------------------------------------------------------|
B   --3-3--33-33---3-3--33-33---3-3--33-33---3-3--33------|
F#  --3-3--33-33---3-3--33-33---3-3--33-33---3-3--33------|
B   --3-3--33-33---3-3--33-33---3-3--33-33---3-3--33------|
     PM PM        PM PM        PM PM        PM PM


                         2:33
"...If your stomach feels week..."
           2:37
C#  --------------------------------|
G#  --------------------------------|
E   -------4----16-------4----------|  repeat section 4x
B   --3-3--x-or-x--33-33-x----------|
F#  --3-3--1----13-33-33-1----------|
B   --3-3----------33-33------------|

          2:48
C#  --------------------------------|
G#  --------------------------------|
E   --------7----17--------7--------|   repeat this section right after
B   ---3-3--x-or-x--33-33--x--------|   the previous section 1 1/2 times
F#  ---3-3--4----14-33-33--4--------|
B   ---3-3----------33-33-----------|

2:52
C#  --------------------------------------------------------|
G#  --------------------------------------------------------|
E   --------------------------------------------------------|  repeat 2x
B   --3-3--33-33---3-3--33-33---3-3--33-33---3-3--33-33-----|
F#  --3-3--33-33---3-3--33-33---3-3--33-33---3-3--33-33-----|
B   --3-3--33-33---3-3--33-33---3-3--33-33---3-3--33-33-----|
     PM PM        PM PM        PM PM        PM PM

3:13
C#  ------------------------------------------------------|
G#  ------------------------------------------------------|
E   ---16--16--16--16--16--16--16-------------------------|
B   -----15--15--15--15--15--15--15-----------------------|
F#  ------------------------------------------------------|
B   ------------------------------------------------------|

            
            
Suggest correction
Creating personal tab
Creating personal tab
You can edit any tab online and save it as your Personal.

You can edit, replace or remove any tab part or add personal notes – all changes will be seen only by you.

Personal tabs can be accessed anytime from any device, even offline.
Learn more »
Give kudos to tab author, rate the tab!
1 2 3 4 5
comments
print report bad tab
1 comment total.
0 reply
Hangar_18 616 Sep 25, 2009 02:25 AM

why cant anyone get this song right?

guest
Wanna post a correction for this tab? Suggest correction