Oops, an error
Loading. Please wait.

Theres No Penguins In Alaska bass

version 1
version 1

Whole song

Interactive

by Chiodos
6,843 views 1 this week
6 commentsread comments
1 2 3 4 5
x 6
add to favorites
×
Save as Personal and add changes to this tab that will be seen only by you. Learn more ›
×
You can save this tab as Personal to edit and correct it or add notes. All changes will be seen only by you. Learn more »
launch autoscroll
font size
0
reset
guitar tuner
edit
Autoscroll
slow
fast
+/-
esc
set tempo
stop
                _________________________________________
             + + There's No Penguins In Alaska - Chiodos + +
             + +_________________________________________+ +

Tabbed By: Brian
E-mail: cactaur1993@yahoo.com

Song: There's No Penguins In Alaska
Artist: Chiodos
Album: All's Well That Ends Well

Tuning: Drop D

Key:
~~~~~ = Let the note ring

Intro (No bass, Only guitar)

(She loves me, she loves me not)
G|----------------------------------------------------------------|
D|----------------------------------------------------------------|
A|555-555-555-5-3-1-1-1-1-3-3-3-3-555-555-555-5-3-1-1-1-1-3-3-3-3-|
D|----------------------------------------------------------------|

(My love was my decay)
G|------------------------------------------------|
D|------------------------------------------------|
A|555-555-555-5-3-1-1-1-1-3-3-3-3-555-555-555-555-|
D|------------------------------------------------|

("She loves me, she loves me not", he repeated to himself, over and over)
G|----------------------------------------------------------------|
D|----------------------------------------------------------------|
A|1-3------3333-1111-0000------3333-1111-0000------3333-1111-0000-|
D|----0000----------------0000----------------0000----------------|

(What's next for you and I)                  (You and I)
G|-------------------------------------------------------------|
D|----------------------------------5-3-2-3--------------------|
A|-----3333-1-111-1-1~~~~~-3-0~~~~~----------3-1~~~~~-3-0~~~~~-|
D|0000---------------------------------------------------------|

(Never resting time, leads summer on, leads summer on)
G|----------------------------------------------------------|
D|----------------------------------------------------------|
A|1-1-1111-11-111-1-1-1111-11-3-----------------------------|
D|------------------------------0-0-0000-00-000-0-0-0000-00-|

(Never resting time, leads summer on, leads summer)
G|----------------------------------------------------------|
D|----------------------------------------------------------|
A|1-1-1111-11-111-1-1-1111-11-3-----------------------------|
D|------------------------------0-0-0000-00-000-0-0-0000-00-|

(On...)
G|------------------------------------------------------|
D|------------------------------------------5-3-2-3-2---|
A|1-1-11-11-111-11-11-3-------------------------------3-|
D|----------------------0-0-00-00-000-00-00-------------|

(No lyrics)
G|-------------------------------------------------|
D|-------------------------------------------------|
A|1-1-11-11-111-11-11-3---------------------3~~~~~-|
D|----------------------0-0-00-00-000-00-00--------|

Break (Guitar only)

(The worst was... The worst was this)
G|--------------------------------------------------------------------|
D|--------------5-3-------------------------------5-3-----------------|
A|555-555-555-5-----1-1-1-1-3-3-3-3-555-555-555-5-----1-1-1-1---------|
D|------------------------------------------------------------0-0-0-0-|

(My love was my decay, my love was...)
G|-----------------------------------------------|
D|-----------------------------------------------|
A|-----------------------------------------------|
D|00-0000-00-00-0000-0~~-00-0000-00-00-0-7-5-3-2-|

(My love was my decay, my love was...)
G|---------------------------------------------|
D|---------------------------------------------|
A|---------------------------------------1-1-1-|
D|00-0000-00-00-0000-0~~-00-0000-00-00-0-------|

(Finding oneself, in such murderous shame)
G|-------------------------------------------------------------|
D|-------------------------------------------------------------|
A|--------3-3-3-3-1-1-1-1-0-0-0-0---------3-3-3-3------------6-|
D|0-0-0-0-------------------------0-0-0-0---------00-0000-00---|

(Playing roulette with a flower, mislead devotion into seclusion)
G|------------------------------------------------------------------|
D|------------------------------------------------------------------|
A|--------3-3-3-3-1-1-1-1-0-0-0-0---------3-3-3-3-------------------|
D|0-0-0-0-------------------------0-0-0-0---------00-0000-00-0~~~~~-|

(Devotion, devotion)
G|-----------------------------------------------|
D|-----------------------------------------------|
A|-----------------------------------------------|
D|00-000-000-00--00-000-000-00--00~-000~-000~-00-|

(Scream as loud as you want to, scream as loud as you want to)
G|----------------------------------------|
D|----------------------------------------|
A|55-55-555-55-55-555-55-55-555-55-55-555-|
D|----------------------------------------|

(There's no way that they can hear you)
G|----------------------------------------------------------------|
D|----------------------------------------------------------------|
A|3-55-3-55-3-5-3-0-11-0-11-0-1-3-3-55-3-55-3-5-3-0-11-0-11-0-1-3-|
D|----------------------------------------------------------------|

(There's no way that they can hear you)
G|-----------------------------------------------------------------|
D|-----------------------------------------------------------------|
A|3-55-3-55-3-5-3-0-11-0-11-0-1-3-3-55-3-55-3-5-3-0-11-0-11-0-1~~~-|
D|-----------------------------------------------------------------|

(Never resting time, leads summer on, leads summer on)
G|----------------------------------------------------------|
D|----------------------------------------------------------|
A|1-1-1111-11-111-1-1-1111-11-3-----------------------------|
D|------------------------------0-0-0000-00-000-0-0-0000-00-|

(Never resting time, leads summer on, leads summer)
G|----------------------------------------------------------|
D|----------------------------------------------------------|
A|1-1-1111-11-111-1-1-1111-11-3-----------------------------|
D|------------------------------0-0-0000-00-000-0-0-0000-00-|

(Never resting time, leads summer on, leads summer on)
G|------------------------------------------------------|
D|------------------------------------------5-3-2-3-2---|
A|1-1-11-11-111-11-11-3-------------------------------3-|
D|----------------------0-0-00-00-000-00-00-------------|

(Never resting time, leads summer on, leads summer on)
G|-------------------------------------------------|
D|-------------------------------------------------|
A|1-1-11-11-111-11-11-3---------------------3~~~~~-|
D|----------------------0-0-00-00-000-00-00--------|

(No lyrics)
G|---------------------------------------|
D|---------------------------------------|
A|---------------------------------------|
D|00-00-000000-00-00--00-00-000000-00-00-|

(I'll stop stabbing)
G|---------------------------------------|
D|---------------------------------------|
A|---------------------------------------|
D|00-00-000000-00-00--00-00-000000-00-00-|

(When you stop screaming)
G|---------------------------------------|
D|---------------------------------------|
A|---------------------------------------|
D|00-00-000000-00-00--00-00-000000-00-00-|

Great song from Chiodos! Hope you like the tab! (Please rate and comment) :)

            
            
Suggest correction
Creating personal tab
Creating personal tab
You can edit any tab online and save it as your Personal.

You can edit, replace or remove any tab part or add personal notes – all changes will be seen only by you.

Personal tabs can be accessed anytime from any device, even offline.
Learn more »
comments
print report bad tab
6 comments total. Showing first comments.
0 reply
crusaderkid 31 Jun 15, 2007 01:13 PM

very nice tab. first one ive seen on the net for bass.. .i was working on one but gave up. thanks man! =D

0 reply
Xb4mvluvrX 167 Aug 06, 2007 04:40 PM

nice tab im an expret at bass but eh i try...my tab was almost like urs lol but i didnt wanna copy u so i didnt submit it

0 reply
emericaskater10 52 Nov 24, 2007 04:11 PM

pretty good

guest
You may want to rate the tab now too:
select rating
Wanna post a correction for this tab? Suggest correction