Oops, an error
Loading. Please wait.

Theres No Penguins In Alaska bass

version 2
version 2

Whole song

Interactive

by Chiodos
1,579 views 1 this week
no commentswrite comment
1 2 3 4 5
x 4
add to favorites
×
Save as Personal and add changes to this tab that will be seen only by you. Learn more ›
×
You can save this tab as Personal to edit and correct it or add notes. All changes will be seen only by you. Learn more »
launch autoscroll
font size
0
reset
guitar tuner
edit
Autoscroll
slow
fast
+/-
esc
set tempo
stop
Hey it's me again I found a good tab for this on Tabcrawler.com, but I didn't see any 
bass tabs so I made one. This is it.

(NO BASS IN INTRO)


"She loves me, She loves me not..."
(VERSE)
G---------------------------------------|
D---------------------------------------|
A---555-555-555-5-3-1-1-1-1-1-3-3-3-3-3-|
D---------------------------------------|


Play that 3 times then
G------------------------------|
D------------------------------|
A---555-555-555-5-3-1-1-1-1-1~-|
D------------------------------|
(FIGURE OUT RHYTHM)^^^

"She loves me, She loves me not. He repeated..."
G----------------------------------------|
D---------------------ONES---------------|
A----------3-33-33--1-11-1-111-0-00-3-33-|
D---0-0-00-------------------------------|

"What's next for you and I..."
(play that 3 times then)
G----------------------------|
D--------------------ONES----|
A----------3-33-3-33-11-11-1-|
D---0-0-00-------------------|

G---------------------------------------------|
D-----------------------------------5-3-2-3---|
A---1-1-1-1-1-1-1-1-1-3---------------------3-|
D-----------------------0-0-0-0-0-0-----------|

"You and I..."
G---------------------------------------------|
D---------------------------------------------|
A---1-1-1-1-1-1-1-1-1-3-----------------------|
D-----------------------0-0-0-0-0-0-0-0-0-0-0-|


"Never resting time, lead summer on..."
G---------------------------------------------|
D---------------------------------------------|
A---1-1-1-1-1-1-1-1-3-3-----------------------|
D-----------------------0-0-000-0-0-0-0-0-0-0-|

SOLO
G---------------------------------------------|
D---------------------------------------------|
A---1-1--1-1-1-1-1-3--------------------------|
D--------------------0-0--0-0-0-0-0-0-0-0-0-0-|

G-------------|
D---5-3-2-3---|
A-----------3-|  play SOLO 2 times
D-------------|

G----------------------------------------|
D----------------5p3p2-------------------|
A----------------------1-1-1-1-1-3-3-3-3-|
D---0-00-0-0-0-0-------------------------|

 "And the worst, was this..."
G---------------------------------------|
D----------------5p3p2------------------|
A----------------------1-1-1-1-1--------|
D---0-00-0-0-0-0-----------------0-0-0--|
                             P.M.* * *
 "Our love was, our decay..."
G-------------------------|
D-------------------------|
A-------------------------|
D---00-0000-00-00-0000-0~-|
P.M.** **** ** ** **** *

play that 3 times then
G--------------------------|
D--------------------------|
A--------------------------|
D---00-0000-00-00-00-0-0-0-|

VERSE
 "Finding oneself..."
G----------------------------------------|
D---------------------ONES---------------|
A----------3-33-33--1-11-1-111-0-00-3-33-|
D---0-0-00-------------------------------|

 "In such murderous shame"
G-----------------------------|
D-----------------------------|
A----------3-33-33------------|
D---0-0-00---------00-0000-00-|


G----------------------------------------|
D---------------------ONES---------------|
A----------3-33-33--1-11-1-111-0-00-3-33-|
D---0-0-00-------------------------------|


 "Playing roulette, with a flower"
G-------------------------------|
D-------------------------------|
A----------3-33-33--------------|
D---0-0-00---------00-0000-00---|

"Mislead devotion, into seclusion"
G-----
D-----
A-----
D---0~


"DEVOTION!...DEVOTION!"
G------------------------------------|
D------------------------------------|
A------------------------------------|
D---0-0-000-000-0-0--0-0-000-000-0-0-|


G---------------------------------|
D---------------------------------|
A-------------------5-5-5-5-5-3h5-|
D---0-0-000-000-0-0---------------|


"there's no way that they can hear you"
G------------------------------|
D------------------------------|
A---5-5-5-5-5-3h5--1-1-1-1-1/3-|
D------------------------------|

play that until


"Never resting time, lead summer on..."
G---------------------------------------------|
D---------------------------------------------|
A---1-1-1-1-1-1-1-1-3-3-----------------------|
D-----------------------0-0-000-0-0-0-0-0-0-0-|


"Never resting time, lead summer on..."
G---------------------------------------------|
D---------------------------------------------|
A---1-1--1-1-1-1-1-3--------------------------|
D--------------------0-0--0-0-0-0-0-0-0-0-0-0-|

G-------------|
D---5-3-2-3---|
A-----------3-|  play SOLO 2 times
D-------------|


OUTRO
G----------------------|
D----------------------|
A----------------------| play until end
D---00-00-000000-00-00-|

PLEASE RATE!!
thats all.
e-mail at Ibanez061@aol.com

            
            
Suggest correction
Creating personal tab
Creating personal tab
You can edit any tab online and save it as your Personal.

You can edit, replace or remove any tab part or add personal notes – all changes will be seen only by you.

Personal tabs can be accessed anytime from any device, even offline.
Learn more »
comments
print report bad tab
guest
You may want to rate the tab now too:
select rating
Wanna post a correction for this tab? Suggest correction