Oops, an error
Loading. Please wait.

Were Gonna Have Us A Champagne Jam tab

version 1
version 1

Whole song

Interactive

by Chiodos
9,306 views 3 this week
2 commentsread comments
1 2 3 4 5
x 3
add to favorites
×
Save as Personal and add changes to this tab that will be seen only by you. Learn more ›
×
You can save this tab as Personal to edit and correct it or add notes. All changes will be seen only by you. Learn more »
launch autoscroll
font size
0
reset
how to read this tab
guitar tuner
edit
Autoscroll
slow
fast
+/-
esc
set tempo
stop
Author
Difficulty
Chiodos - Were Gonna Have Us A Champagne Jam

(intro)

|-----------------------------------------------------------------------------------------------|
|------------------------------------------------------------------------15-15-15---------------|
|------------------15-15-15-14-14-14-----12-12-12----------------15-15-15--------14-14-15-15-15-|
|----------12-12-12-----------------15-15----------------12-12-12-------------------------------|
|--10-10-10--------------------------------------10-10-10---------------------------------------|
|-----------------------------------------------------------------------------------------------|

|--------------------------------------------------------------------------------------------|
|--------------------------------------------------------------------------------------------|
|------------------15-15-15-14-14-14-14-14-14-14----------12-12-12-----10-10-10-10-10-10-10--|
|----------12-12-12-----------------------------------------------10-10----------------------|
|--13-13-13----------------------------------------------------------------------------------|
|-------------------------------------------------10-10-10-----------------------------------|

|------------------------------------------------------------------------15-15-15---------------|
|-----------------------------------------------------------------------------------------------|
|------------------15-15-15-14-14-14-----12-12-12----------------15-15-15--------14-14-15-15-15-|
|----------12-12-12-----------------15-15----------------12-12-12-------------------------------|
|--10-10-10--------------------------------------10-10-10---------------------------------------|
|-----------------------------------------------------------------------------------------------|

|--------------------------------------------------------------------------------------------|
|--------------------------------------------------------------------------------------------|
|------------------15-15-15-14-14-14-14-14-14-14----------12-12-12-----10-10-10-10-10-10-10--|
|----------12-12-12-----------------------------------------------10-10----------------------|
|--13-13-13----------------------------------------------------------------------------------|
|-------------------------------------------------10-10-10-----------------------------------|


|--------------------------------------------------------------------|
|--------------------------------------------------------------------|
|--------------------------------------------------------------------|
|--5----3-5----1~---0----3-------------------------------------------|
|--5----3-5----1~---0----3-------------------------------------------|
|--5----3-5----1~---0----3-------------------------------------------| (x2)


(verse)

|--------------------------------------------------------------------|
|--------------------------------------------------------------------|
|--12------------10-12-------------3------------7-77-777-10101010----|
|---x-xx-xxx-xxx-x---x-xxx-xxx-xxx-x-xx-xxx-xx--x-xx-xxx-x-xx-xxx----|
|--10-xx-xxx-xxx-8--10-xxx-xxx-xxx-1-xx-xxx-xx--5-55-555-8-88-888----|
|-----xx-xxx-xxx-------xxx-xxx-xxx---xx-xxx-xx-----------------------|

(pat)
|--------------------------------------------------------------------|
|--------------------------------------------------------------------|
|--------------------------------------------------------------------|
|--5---xx-xxx-xxx-3--5--xxx-xxx-xxx-1--xx-xxx-xx---00-000-33-333-----|
|--5---xx-xxx-xxx-3--5--xxx-xxx-xxx-1--xx-xxx-xx---00-000-33-333-----|
|--5---xx-xxx-xxx-3--5--xxx-xxx-xxx-1--xx-xxx-xx---00-000-33-333-----|



|------------------------------------------------------------------------------------------------|
|------------------------------------------------------------------------------------------------|
|--12-1212-121212-121212-1212-14-15-15-15-15-17-14-1414-14-15--12-----------10--12---------------|
|---x--x-x--x-x-x--x-x-x--x-x--x--x--x--x--x--x--x--x-x--x--x---x-xx-xxx-xxx-x---x-xxx-xxx-xxx---|
|--10-1010-101010-101010-1010/12/13-13-13-13/15-12-1212-12/13--10-xx-xxx-xxx-8--10-xxx-xxx-xxx---|
|-----------------------------------------------------------------xx-xxx-xxx-------xxx-xxx-xxx---| (x2)


|--------------------------------------------------------------------|
|--------------------------------------------------------------------|
|--------------------------------------------------------------------|
|---5-55555-55-55-1-11111-3-33-333--5---xx-xxx-xxx-3--5--xxx-xxx-xxx-|
|---5-55555-55-55-1-11111-3-33-333--5---xx-xxx-xxx-3--5--xxx-xxx-xxx-|
|---5-55555-55-55-1-11111-3-33-333--5---xx-xxx-xxx-3--5--xxx-xxx-xxx-|(x2)


|------------------|
|------------------|(last time through)
|------------------|
|------------333---|
|--3333333333333---|
|--3333333333333---|(palm mute)

(chorus?)

|----------------------------------------------------------------------------------------------------------------|
|----------------------------------------------------------------------------------------------------------------|
|-------7777/15151515\14141414------7777/19191919\10101010------3333\12121212\14141414------5555\12121212/1010---|
|--55-5-xxxx--x-x-x-x--x-x-x-x-55-5-xxxx--x-x-x-x--x-x-x-x-11-1-xxxx--x-x-x-x--x-x-x-x-33-3-xxxx--x-x-x-x-xxxx---|
|--55-5-5555/13131313\12121212-55-5-5555/17171717\12121212-11-1-1111\10101010\12121212-33-3-3333\10101010/8888---|
|--55-5------------------------55-5------------------------11-1------------------------33-3----------------------|


|---------------------------------------------|
|---------------------------------------------|
|---------------------------------------------|
|--55-55--55--55-55--55--11-11--1-1--33--33---|
|--55-55--55--55-55--55--11-11--1-1--33--33---|
|--55-55--55--55-55--55--11-11--1-1--33--33---|(x2)

(fill)

|------------------------------------------|
|------------------------------------------|
|-1012-14-1012-14-1012-14-1012-14-15/14----|
|-x--x--x-x--x--x-x--x--x-x--x--x--x/x-----|
|-8-10-12-8-10-12-8-10-12-8-10-12-13/12----|
|------------------------------------------|


|------------------------------------------|
|------------------------------------------|
|-7-9-10-7-9-10-7-9-10-7-9-10-12/10--------|
|-x-x-x--x-x-x--x-x-x--x-x-x--x-/x---------|
|-5-7-8--5-7-8--5-7-8--5-7-8--10/8---------|
|------------------------------------------|

(verse 2)

|------------------------------------------------|
|------------------------------------------------|
|--0-7-10--0-5-8--0-3-5--0-2-3-0-2-3-0-2-3-0-2-0-|
|------------------------------------------------|
|------------------------------------------------|
|------------------------------------------------|(bunch of times)


|---------------------------------------------------------------------|
|---------------------------------------------------------------------|
|---------------------------------------------------------------------|
|--55555555555555551111111133333333--55555555555555551111111133333333-|
|--55555555555555551111111133333333--55555555555555551111111133333333-|
|--55555555555555551111111133333333--55555555555555551111111133333333-|(x4)

(solo thing)

|-------------------------------------------------------------------------|
|-------------------------------------------------------------------------|
|--10p7h10p7h10p7-\-8p5h8p5h8p5h8h5h8p5h8p5-\--5p3h5p3h5p3-\-3p2h3p2h3p2--|
|-------------------------------------------------------------------------|
|-------------------------------------------------------------------------|
|-------------------------------------------------------------------------|

(fill)

|------------------------------------------|
|------------------------------------------|
|-1012-14-1012-14-1012-14-1012-14-15/14----|
|-x--x--x-x--x--x-x--x--x-x--x--x--x/x-----|
|-8-10-12-8-10-12-8-10-12-8-10-12-13/12----|
|------------------------------------------|


|------------------------------------------|
|------------------------------------------|
|-7-9-10-7-9-10-7-9-10-7-9-10-12/10--------|
|-x-x-x--x-x-x--x-x-x--x-x-x--x-/x---------|
|-5-7-8--5-7-8--5-7-8--5-7-8--10/8---------|
|------------------------------------------|

(chorus)

|----------------------------------------------------------------------------------------------------------------|
|----------------------------------------------------------------------------------------------------------------|
|-------7777/15151515\14141414------7777/19191919\10101010------3333\12121212\14141414------5555\12121212/1010---|
|--55-5-xxxx--x-x-x-x--x-x-x-x-55-5-xxxx--x-x-x-x--x-x-x-x-11-1-xxxx--x-x-x-x--x-x-x-x-33-3-xxxx--x-x-x-x-xxxx---|
|--55-5-5555/13131313\12121212-55-5-5555/17171717\12121212-11-1-1111\10101010\12121212-33-3-3333\10101010/8888---|
|--55-5------------------------55-5------------------------11-1------------------------33-3----------------------|


|---------------------------------------------|
|---------------------------------------------|
|---------------------------------------------|
|--55-55--55--55-55--55--11-11--1-1--33--33---|
|--55-55--55--55-55--55--11-11--1-1--33--33---|
|--55-55--55--55-55--55--11-11--1-1--33--33---|(x2)


(fill#2)

|--------------------------------------------------------------------|
|--------------------------------------------------------------------|
|--------------------------------------------------------------------|
|--5555-55-55--5555-55-55--5555-55-55--11111111-33333333-------------|
|--5555-55-55--5555-55-55--5555-55-55--11111111-33333333-------------|
|--5555-55-55--5555-55-55--5555-55-55--11111111-33333333-------------|(x2)

(piano)

(outro)

|-10--------8-------6------5-----------------------------------------|
|----11-------10------8------7---------------------------------------|
|-------12-------10-----8------7-------------------------------------|
|--------------------------------------------------------------------|
|--------------------------------------------------------------------|
|--------------------------------------------------------------------| x2

then 

|------------------------------|
|------------------------------|
|--121212-1010--777-8888-------|
|---x-x-x--x-x--xxx-xxxx-------|
|--101010-8888--555-6666-------|
|------------------------------|

            
            
Suggest correction
Creating personal tab
Creating personal tab
You can edit any tab online and save it as your Personal.

You can edit, replace or remove any tab part or add personal notes – all changes will be seen only by you.

Personal tabs can be accessed anytime from any device, even offline.
Learn more »
Give kudos to tab author, rate the tab!
1 2 3 4 5
comments
print report bad tab
2 comments total.
0 reply
iminvisible 10 Aug 14, 2007 07:10 AM

wow the whole thing

0 reply
Rampy 134 Jul 30, 2008 02:24 PM

So, I Don't Know How To Post A Tab.

Hopefully This Works.


Intro.
|--------------------------------|
|--------------------------------|
|--------------------------------|
|--5----3-5----1~---3-1---3------|
|--5----3-5----1~---3-1---3------|
|--5----3-5----1~---3-1---3------|


|--------------------------------------------------------------|
|--------------------------------------------------------------|
|--------------------------------------------------------------|
|-5-xxx-xxx-xxx-3--5--xxx-xxx-xxx-1-xx-xxx-xx-3-11-111--33-333-|
|-5-xxx-xxx-xxx-3--5--xxx-xxx-xxx-1-xx-xxx-xx-3-11-111--33-333-|
|-5-xxx-xxx-xxx-3--5--xxx-xxx-xxx-1-xx-xxx-xx-3-11-111--33-333-|

guest
You may want to rate the tab now too:
select rating
Wanna post a correction for this tab? Suggest correction