Oops, an error
Loading. Please wait.

Borracho De Tienda tab

by Chite
37 views 1 this week
no commentswrite comment
1 2 3 4 5
3 more votes to show rating
add to favorites
×
Save as Personal and add changes to this tab that will be seen only by you. Learn more ›
×
You can save this tab as Personal to edit and correct it or add notes. All changes will be seen only by you. Learn more »
launch autoscroll
font size
0
reset
how to read this tab
guitar tuner
edit
Autoscroll
slow
fast
+/-
esc
set tempo
stop
Intro

E|-------------------------|
B|-------------------------|
G|-8-/-9-9-9-9-9-9-9-9-9-9-|
D|-8-/-9-9-9-9-9-9-9-9-9-9-|   x4
A|-6-/-7-7-7-7-7-7-7-7-7-7-|
E|-------------------------|

Estrofa I

E5                       B5
En la tienda de la esquina
E5                      B5
Esta Chirly con las frías

Estrofa II

A5
Todo el tiempo esta sonando la rockola
B5
Donde Jose Eduin no hay lugar pa´ chicas solas
A5
Estar borracho para mi es cuestión de herencia
B5
Yo seré alcohol con mi adolescencia

Coro

E|---------------------------|
B|---------------------------|
G|-8-/-9-9-9-9---8-/-9-9-9-9-|
D|-8-/-9-9-9-9---8-/-9-9-9-9-|
A|-6-/-7-7-7-7---6-/-7-7-7-7-|
E|---------------------------|

C#5
Soy un borracho de tienda

E|---------------------------|
B|---------------------------|
G|---------------------------|
D|-6-/-7-7-7-7---6-/-7-7-7-7-|
A|-6-/-7-7-7-7---6-/-7-7-7-7-|
E|-4-/-5-5-5-5---4-/-5-5-5-5-|

B5
No soy un yonki de mierda

E|---------------------------|
B|---------------------------|
G|-8-/-9-9-9-9---8-/-9-9-9-9-|
D|-8-/-9-9-9-9---8-/-9-9-9-9-|
A|-6-/-7-7-7-7---6-/-7-7-7-7-|
E|---------------------------|

C#5
Soy un borracho de tienda

E|---------------------------|
B|---------------------------|
G|---------------------------|
D|-6-/-7-7-7-7---6-/-7-7-7-7-|
A|-6-/-7-7-7-7---6-/-7-7-7-7-|
E|-4-/-5-5-5-5---4-/-5-5-5-5-|

B5
No soy un yonki de mierda

Intermedio

E|-------------------------|
B|-------------------------|
G|-8-/-9-9-9-9-9-9-9-9-9-9-|
D|-8-/-9-9-9-9-9-9-9-9-9-9-|
A|-6-/-7-7-7-7-7-7-7-7-7-7-|
E|-------------------------|


E|-------------------------|
B|-------------------------|
G|-------------------------|
D|-8-/-9-9-9-9-9-9-9-9-9-9-|
A|-8-/-9-9-9-9-9-9-9-9-9-9-|
E|-6-/-7-7-7-7-7-7-7-7-7-7-|

                             x2
Estrofa III

E5                  B5
Una ronda pa´ la mesa
E5                    B5
Mis amigos se confiesan

Estrofa IV

A5
Suena suena Romulo Caicedo
B5
La cerveza despierta mis sentimientos
A5
Voy por una a las 3 de la mañana
B5
Cierran tienda, no me voy para mi casa

Coro


E|---------------------------|
B|---------------------------|
G|-8-/-9-9-9-9---8-/-9-9-9-9-|
D|-8-/-9-9-9-9---8-/-9-9-9-9-|
A|-6-/-7-7-7-7---6-/-7-7-7-7-|
E|---------------------------|

C#5
Soy un borracho de tienda

E|---------------------------|
B|---------------------------|
G|---------------------------|
D|-6-/-7-7-7-7---6-/-7-7-7-7-|
A|-6-/-7-7-7-7---6-/-7-7-7-7-|
E|-4-/-5-5-5-5---4-/-5-5-5-5-|

B5
No soy un yonki de mierda

E|---------------------------|
B|---------------------------|
G|-8-/-9-9-9-9---8-/-9-9-9-9-|
D|-8-/-9-9-9-9---8-/-9-9-9-9-|
A|-6-/-7-7-7-7---6-/-7-7-7-7-|
E|---------------------------|

C#5
Aquí me vuelvo viejo

E|---------------------------|
B|---------------------------|
G|---------------------------|
D|-6-/-7-7-7-7---6-/-7-7-7-7-|
A|-6-/-7-7-7-7---6-/-7-7-7-7-|
E|-4-/-5-5-5-5---4-/-5-5-5-5-|

B5
Ebrio como mi abuelo

Final

E5        C#5
(Borracho Borracho)
A5          B5
la canequita te espera
E5        C#5
(Borracho Borracho)
A5          B5
Soy un borracho de tienda
E5        C#5
(Borracho Borracho)
A5          B5
la canequita te espera
E5        C#5
(Borracho Borracho)
A5          B5
soy un borracho de tienda.


Creo que quedo relativamente bien así que pues alguna duda
envíenla a Brauolioandres1296@
pst: todas las notas van con sejilla

            
            
Suggest correction
Creating personal tab
Creating personal tab
You can edit any tab online and save it as your Personal.

You can edit, replace or remove any tab part or add personal notes – all changes will be seen only by you.

Personal tabs can be accessed anytime from any device, even offline.
Learn more »
Give kudos to tab author, rate the tab!
1 2 3 4 5
comments
print report bad tab
guest
Wanna post a correction for this tab? Suggest correction