Oops, an error
Loading. Please wait.

Otra Vez Donde Las Putas tab

by Chite
65 views 1 this week
no commentswrite comment
1 2 3 4 5
3 more votes to show rating
add to favorites
×
Save as Personal and add changes to this tab that will be seen only by you. Learn more ›
×
You can save this tab as Personal to edit and correct it or add notes. All changes will be seen only by you. Learn more »
launch autoscroll
font size
0
reset
how to read this tab
guitar tuner
edit
Autoscroll
slow
fast
+/-
esc
set tempo
stop
      C5
Otra vez donde las putas
      G5
Otra vez buscando amor
      A5
Otra vez abandonado
      F5
Otra vez marcando dos
      C5
Otra vez con los problemas
      G5
Otra vez sin solución
      A5
Otra vez tocando tetas
      G5
pagando por la ocación


CORO:
C5                  G5
Puta puta yo quiero una puta
      A5          F5
La puta mas puta de esta ciudad
C5                G5
Cuca cuca donde está mi cuca
      A5          G5
Buscaré una cuca para olvidar


E|-----------------------------------------|
B|-8v--8--------8v---8-10-12-10-8-----8v---|
G|-------9-7v---------------------7-9------|
D|-----------------------------------------|
A|-----------------------------------------|
E|-----------------------------------------|


E|------------------------------------------|
B|--------------10v---10/15--14-15-14-15-14-|
G|-7--9--7-9-7------------------------------|
D|------------------------------------------|
A|------------------------------------------|
E|------------------------------------------|

E|---------------------------------|
B|---------------------------------|
G|-5555555-------------------------|
D|-5555555-5555555-7777777-3333333-| X2
A|-3333333-5555555-7777777-3333333-|
E|---------3333333-5555555-1111111-|


      C5
Otra vez donde las putas
      G5
Otra vez en descontrol
      A5
Otra vez bailando ebrio
      F5
Otra vez la misma canción
      C5
Otra vez donde las putas
      G5
por la misma institución
      A5
Pensando que es más puta
      F5
la otra que me abandono

E|------------------------------------------------------------|
B|------------------------------------------------------------|
G|-5555555------------------------5555555---------------------|
D|-5555555-5555555-33333333333333-5555555-5555555-3333333-7-5-| X2
A|-3333333-5555555-33333333333333-3333333-5555555-3333333-7-5-|
E|---------3333333-11111111111111---------3333333-1111111-5-3-|


CORO:
C5                  G5
Puta puta yo quiero una puta
      A5          F5
La puta mas puta de esta ciudad
C5                G5
Cuca cuca donde está mi cuca
      A5          G5
Buscaré una cuca para olvidar

E|---------------------|
B|---------------------|
G|------------------5--|
D|-5555555555555555-5--|
A|-5555555555555555-3--|
E|-3333333333333333----|


ACORDES:
E|---X----X----X----X---|
B|---X----X----X----X---|
G|---5----X----X----X---|
D|---5----5----7----3---|
A|---3----5----7----3---|
E|---X----3----5----1---|
     C5   G5   A5   F5

            
            
Suggest correction
Creating personal tab
Creating personal tab
You can edit any tab online and save it as your Personal.

You can edit, replace or remove any tab part or add personal notes – all changes will be seen only by you.

Personal tabs can be accessed anytime from any device, even offline.
Learn more »
Give kudos to tab author, rate the tab!
1 2 3 4 5
comments
print report bad tab
guest
Wanna post a correction for this tab? Suggest correction