Oops, an error
Loading. Please wait.

Perro De Taller tab

by Chite
40 views 1 this week
no commentswrite comment
1 2 3 4 5
3 more votes to show rating
add to favorites
×
Save as Personal and add changes to this tab that will be seen only by you. Learn more ›
×
You can save this tab as Personal to edit and correct it or add notes. All changes will be seen only by you. Learn more »
launch autoscroll
font size
0
reset
how to read this tab
guitar tuner
edit
Autoscroll
slow
fast
+/-
esc
set tempo
stop
                E5
No me trates así
              B5
como un perro de taller
              A5
me hace tanto daño a mi
              B5
los recuerdos del ayer
                E5
No puedo seguir así
             B5
no lo puedo entender
            A5
nena si no me querés
           B5
explícame de una vez.

E---------------------------------------|
B---------------------------------------|
G-9999999-1111111111--------------------|
d-9999999-1111111111-999999999999999999-|
A-7777777-9-9-9-9-9--999999999999999999-|
E--------------------777777777777777777-|

E---------------------------------------|
B---------------------------------------|
G-8/999999-1111111111-------------------|
d-8/999999-1111111111-8/999999-8/999999-|
A-6/777777-9-9-9-9-9--8/999999-8/999999-|
E---------------------6/777777-6/777777-|

E---------------------------------------|
B---------------------------------------|
G-9999999-1111111111--------------------|
d-9999999-1111111111-999999999999999999-|
A-7777777-9-9-9-9-9--999999999999999999-|
E--------------------777777777777777777-|

E|---------------------------------------|
B|---------------------------------------|
G|-8/99999-1111111111--------------------|
D|-8/99999-1111111111-8/999999-9---------|
A|-6/77777-9-9-9-9-9--8/999999-9---------|
E|--------------------6/777777-7---------|

E5
Recuerdos en el parque
B5
recuerdos en tu casa
E5                          B5
recuerdos que no puedo olvidar.

E|-------|
B|-------|
G|-9-----|
D|-9--9--|
A|-7--9--|
E|----7--|

E5
Lo bueno que vivimos
B5
todo lo que sufrimos
E5                       B5
Por qué no pudiste aguantar.

E|-------|
B|-------|
G|-9-----|
D|-9--9--|
A|-7--9--|
E|----7--|

C#5       B5      A5
Ya no me trates así
C#5       B5       A5
ya no me trates tan mal
C#5       B5        A5
no quiero esto para mi
C#5 B5 A5     B5
              para mi.


               E5
No me trates así
              B5
como un perro de taller
              A5
dando vueltas sin parar
            B5
esperando qué comer
               E5
No puedes entender
            B5
soyun callejero más
              A5
solo busco a quién cuidar
              B5
solo busco a quién querer.


                E5
No me trates así
              B5
como un perro de taller
              A5
me hace tanto daño a mi
              B5
los recuerdos del ayer
                E5
No puedo seguir así
             B5
no lo puedo entender
            A5
nena si no me querés
           B5
explícame de una vez.
              E5
No me trates así

ACORDES:
E|---X----X----X----X---|
B|---X----X----X----X---|
G|---X----X----2----9---|
D|---11---9----7----9---|
A|---11---9----7----7---|
E|---9----7----5----X---|
    C#5   B5   A5   E5

            
            
Suggest correction
Creating personal tab
Creating personal tab
You can edit any tab online and save it as your Personal.

You can edit, replace or remove any tab part or add personal notes – all changes will be seen only by you.

Personal tabs can be accessed anytime from any device, even offline.
Learn more »
Give kudos to tab author, rate the tab!
1 2 3 4 5
comments
print report bad tab
guest
Wanna post a correction for this tab? Suggest correction