Oops, an error
Loading. Please wait.

Rancho Y Licores tab

by Chite
35 views 1 this week
no commentswrite comment
1 2 3 4 5
3 more votes to show rating
add to favorites
×
Save as Personal and add changes to this tab that will be seen only by you. Learn more ›
×
You can save this tab as Personal to edit and correct it or add notes. All changes will be seen only by you. Learn more »
launch autoscroll
font size
0
reset
how to read this tab
guitar tuner
edit
Autoscroll
slow
fast
+/-
esc
set tempo
stop
INTRO: (Todo se toca dos veces)
E|-----------------------------------------|
B|-----------------------------------------|
G|---------------------7777-7777-7777-7777-|
D|-7777-7777-7777-7777-7777-7777-7777-7777-|
A|-7777-7777-7777-7777-5555-5555-5555-5555-|
E|-5555-5555-5555-5555---------------------|

E|-----------------------------------------|
B|-----------------------------------------|
G|---------------------9999-7777-----------|
D|-7777-7777-7777-7777-7777-5555-7777-7777-|
A|-7777-7777-7777-7777-7777-5555-7777-7777-|
E|-5555-5555-5555-5555-----------5555-5555-|

A5
Quise ser Tom Waits pero fui Giovanni Ayala chalalala Chalalala
D5
No tengo tu kukita solo me queda la paja chalalala Chalalala
A5
Voy de tienda en tienda, prendo otro cigarrillo chalalala Chalalala
E5                 D5                       A5
Y tú me has cambiando por tres rayas de perico


A5                      E5
Dime, dime, dime, dime, si al vaciar las botellas
D5                               (Riff canchoso y ramonero)
Dime, dime, dime, dime, si me olvido de ella
A5                 E5
Dile a mi corazón, dile porque te ensañas
D5                                     A5
Dile a mis viejos discos porque no me amas

E|-----------------|
B|-----------------|
G|-------6/777-----|
D|-6/777-6/777-7---|
A|-6/777-4/555-7---|
E|-4/555-------5---|
    Llegan los desamores,

E|-----------------|
B|-----------------|
G|-------6/777-----|
D|-6/777-6/777-7---|
A|-6/777-4/555-7---|
E|-4/555-------5---|
    ya que no hay soluciones

E|-----------------|
B|-----------------|
G|-6/777-6/777-----|
D|-6/777-6/777-7---|
A|-4/555-4/555-7---|
E|-------------5---|
    Voy a rancho y licores,
E|------------------------|
B|------------------------|
G|-------------7777777777-|
D|-6/777-99999-7777777777-|
A|-6/777-99999-5555555555-|
E|-4/555-77777------------|

D5
Yo Era un borracho alegre Era un feliz chaval
D5
Ahora veo radiola Y lloro al ver llorar
A5
Parezco quinceañera apunto de abordar
A5
se pudre el corazón Y el hígado anda mal.


A5                      E5
Dime, dime, dime, dime, si esta tanda me arregla
D5                               (Riff canchoso y ramonero)
Dime, dime, dime, dime, si hoy el diablo me lleva
A5                 E5
Dile a mi corazón, dile a esta resaca
D5                                A5
Dime si ese cabrón la picada te gasta

A5                 E5
Dime alguna razón, aunque no espero nada
D5                     (Riff canchoso y ramonero)    D5  A5
Dile a nuestras canciones que con otros bailas.


ACORDES:
E|----X-----X-----X----X---|
B|----X-----X-----X----X---|
G|----X-----7-----9----X---|
D|----7-----7-----9----6---|
A|----7-----5-----7----6---|
E|----5-----X-----X----4---|
      A5    D5    E5  G#5

(Riff canchoso y ramonero)
E|-------------------------|
B|-------------------------|
G|-------------------------|
D|-6/777-6/777-6/777-6/777-|
A|-6/777-6/777-6/777-6/777-|
E|-4/555-4/555-4/555-4/555-|

            
            
Suggest correction
Creating personal tab
Creating personal tab
You can edit any tab online and save it as your Personal.

You can edit, replace or remove any tab part or add personal notes – all changes will be seen only by you.

Personal tabs can be accessed anytime from any device, even offline.
Learn more »
Give kudos to tab author, rate the tab!
1 2 3 4 5
comments
print report bad tab
guest
Wanna post a correction for this tab? Suggest correction