Oops, an error
Loading. Please wait.

Sicario De Comuna tab

by Chite
38 views 1 this week
no commentswrite comment
1 2 3 4 5
3 more votes to show rating
add to favorites
×
Save as Personal and add changes to this tab that will be seen only by you. Learn more ›
×
You can save this tab as Personal to edit and correct it or add notes. All changes will be seen only by you. Learn more »
launch autoscroll
font size
0
reset
how to read this tab
guitar tuner
edit
Autoscroll
slow
fast
+/-
esc
set tempo
stop
INTRO:
E|----------------------------------------------|
B|----------------------------------------------|
G|-7777-5555--------------7777-5555-------------|
D|-7777-5555-5/777-5/777--7777-5555-5/777-5/777-|
A|-5555-3333-5/777-5/777--5555-3333-5/777-5/777-|
E|-----------3/555-3/555------------3/555-3/555-|

D5          C5        G5/A5 G5/A5
Soy sicario de comuna
D5          C5        G5/A5 G5/A5
mato ricos por placer
D5          C5           G5/A5 G5/A5
me gusta pegar las balas
D5            C5            G5/A5 G5/A5
con eskorbuto y con herbert

E|-------------------------------|
B|-------------------------------|
G|-------------------------------|
D|-------------------------5555--|
A|-3-5-3-5-3-5-3-5-3-5-3-5-------|
E|-------------------------------|

(solo bateria)
Soy sicario de comuna
el crimen es mi patro
la anarquia esta en mi moto
y en el fierro mi pasion

E|----------------------|
B|-7777-6666-7777-6666--|
G|----------------------|
D|----------------------| X2
A|----------------------|
E|----------------------|

VERSO:
E|--------------------------|
B|--------------------------|
G|--------------------------|
D|-5/777-5555--5/777-5-5-5--| x4
A|-5/777-5555--5/777-5-5-5--|
E|-3/555-3333--3/555-3-3-3--|

G5/A5    G5
Regimen militarista
G5/A5       G5
de carriel y gran moral
G5/A5       G5
de catolicos fascistas
G5/A5     G5
un punko paraestaral
G5/A5       G5
todos andan convertidos
G5/A5       G5
no importa si eres un buen tipo
G5/A5      G5
todos son oportunistas
G5/A5      G5
de derecha pacifistas

E|----------------------|
B|-7777-6666-7777-6666--|
G|----------------------|
D|----------------------| X2
A|----------------------|
E|----------------------|

VERSO:
E|--------------------------|
B|--------------------------|
G|--------------------------|
D|-5/777-5555--5/777-5-5-5--| x4
A|-5/777-5555--5/777-5-5-5--|
E|-3/555-3333--3/555-3-3-3--|

G5/A5        G5
Con tu amigo el cardenal
G5/A5     G5
el aborto a exomulgar
G5/A5      G5
con apoyo del vecino
G5/A5        G5
cerdos perros pervertido
G5/A5     G5
pasa todo seria muerte
G5/A5       G5
mierda viene y mierda va
G5/A5       G5
todos creen en tus mentiras
G5/A5      G5
hasta en el puto mundial

E|------------|--------------|
B|-7777-6666--|-7777-6666----|
G|------------|--------------|
D|------------|-----------5--|
A|--------X3--|-----------5--|
E|------------|-----------3--|

ACORDES:
E|----X----X----X----X----|
B|----X----X----X----X----|
G|----X----X----5----7----|
D|----5----7----5----7----|
A|----5----7----3----5----|
E|----3----5----X----X----|
      G5   A5   C5   D5

            
            
Suggest correction
Creating personal tab
Creating personal tab
You can edit any tab online and save it as your Personal.

You can edit, replace or remove any tab part or add personal notes – all changes will be seen only by you.

Personal tabs can be accessed anytime from any device, even offline.
Learn more »
Give kudos to tab author, rate the tab!
1 2 3 4 5
comments
print report bad tab
guest
Wanna post a correction for this tab? Suggest correction