Oops, an error
Loading. Please wait.

Bubble Dream intro tab

version 1
version 1

Intro

Whole song

  • I love this song...So complicated and progressive ... Show more

Interactive

by CHON
3,466 views 45 this week
3 commentsread comments
1 2 3 4 5
x 4
add to favorites
×
Save as Personal and add changes to this tab that will be seen only by you. Learn more ›
×
You can save this tab as Personal to edit and correct it or add notes. All changes will be seen only by you. Learn more »
launch autoscroll
font size
0
reset
how to read this tab
guitar tuner
edit
Autoscroll
slow
fast
+/-
esc
set tempo
stop
Author
Difficulty
-------------------------------------------------------------------------------
                             Bubble Dream Intro - Chon
-------------------------------------------------------------------------------
Tabbed by: ADC2000/DT
E-mail: dyrathorvaldsson@gmail.com

Tuning: Standard EADGBe

e|------------2--3--2-----0----------------------------------|
B|----------3----------3--------------------------------3----|
G|----2--4-------------------2--4--2--0--------------2-----4-|
D|---------------------------------------4--0----------------|
A|-3-------------------------------------------2--3----------|
E|-----------------------------------------------------------|

e|------------------------0------|
B|---------------------0---------|
G|-------0--------5/7------------|
D|----------------5/7------------|
A|-0--3-----3--0-----------------|
E|----------------5/7------------|

e|------------2--3--2-----0----------------------------------|
B|----------3----------3--------------------------------3----|
G|----2--4-------------------2--4--2--0--------------2-----4-|
D|---------------------------------------4--0----------------|
A|-3-------------------------------------------2--3----------|
E|-----------------------------------------------------------|

e|--------------------------------|
B|--------------------------------|
G|-------0-----------------2--0---|
D|----------------5--7--5---------|
A|-0--3-----3--0------------------|
E|--------------------------------|


***********************************
| /   Slide up
***********************************

            
            
Suggest correction
Creating personal tab
Creating personal tab
You can edit any tab online and save it as your Personal.

You can edit, replace or remove any tab part or add personal notes – all changes will be seen only by you.

Personal tabs can be accessed anytime from any device, even offline.
Learn more »
comments
print report bad tab
3 comments total.
0 reply
AuroraLux 421 Dec 08, 2016 11:15 PM

I am on phone and can't edit I but in the main hook, what I have marked as an e (5th fret on b string) as the third note should be a d (3rd fret)

Apologies

0 reply
ichacker 10 Aug 19, 2017 11:27 AM

It sounds nice (except for the very last 2 notes), but it"s not how they play it.
4 stars for effort :)

0 reply
AuroraLux 421 Aug 20, 2017 05:34 PM

I had a foreword in the tab mentioning how this is not how they play it but it sounds more open here if thats a desired sound. Unfortunately I think a moderator must have removed it.

I currently am traveling without my guitar but I'll look into the last two notes when I get back

guest
You may want to rate the tab now too:
select rating
Wanna post a correction for this tab? Suggest correction