Oops, an error
Loading. Please wait.

Knot intro tab

version 2
version 2

Intro

Interactive

by CHON
1,502 views 9 this week
no commentswrite comment
1 2 3 4 5
2 more votes to show rating
add to favorites
×
Save as Personal and add changes to this tab that will be seen only by you. Learn more ›
×
You can save this tab as Personal to edit and correct it or add notes. All changes will be seen only by you. Learn more »
launch autoscroll
font size
0
reset
how to read this tab
guitar tuner
edit
Autoscroll
slow
fast
+/-
esc
set tempo
stop
Author
Difficulty
-------------------------------------------------------------------------------
                            knot - chon
-------------------------------------------------------------------------------
my first tab of an amazing song. hope you enjoy it and please give any feedback on 
how i can improve!!    

Tabbed by: dj bowron
E-mail: dj.bowron@gmail.com 
Instagram: @Dj__perth

Tuning:standard

mario
 p.m----|        p.m                           p.m
e|-----------------------12/14---------------------------------------------------11-16-|
B|--------10/12-----------------12--14--12/14---------------------------------12-------|
G|---------------11--13----------------------------13-11-11-16-16-13-13-11-13----------|
D|-----9-------------------------------------------------------------------------------|
A|--7------------------------------------------12--------------------------------------|
E|-------------------------------------------------------------------------------------|

erick
 
e|--------------------------------------------------------------------------|
B|--------------------------------------------------------------------------|
G|--9------------------------------------6----------------------------------|
D|--9------------------------------------6----------------------------------|
A|--------------------------------------------------------------------------|
E|--9------------------------------------5----------------------------------|

mario
 p.m----|        p.m               p.m                     
e|--------------------------------------12-11-9----------------------------------------|
B|--------10/12---------------------------------12-12-9-9h12---------------------------|
G|---------------11--13--11--9---------------------------------9-11-13-9h11------------|
D|-----9-----------------------------------------------------9-------------------------|
A|--7---------------------------12--9--------------------------------------------------|
E|-------------------------------------------------------------------------------------|

erick

e|--4-----------------------------------------------------------------------|
B|--5-------------------------------4---------------------------------------|
G|--4-------------------------------4---------------------------------------|
D|----------------------------------4---------------------------------------|
A|----------------------------------2---------------------------------------|
E|--2-----------------------------------------------------------------------|

mario
 p.m----|        p.m                           p.m
e|-----------------------12/14---------------------------------------------------11-16-|
B|--------10/12-----------------12--14--12/14---------------------------------12-------|
G|---------------11--13----------------------------13-11-11-16-16-13-13-11-13----------|
D|-----9-------------------------------------------------------------------------------|
A|--7------------------------------------------13--------------------------------------|
E|-------------------------------------------------------------------------------------|

erick
                                               tap harmonics-----|
e|-------------------------------------------------19-----------------------|
B|---------------------------------------7--------------------19------------|
G|--9------------------------------------6----------------------------------|
D|--9------------------------------------6----------------------------------|
A|--------------------------------------------------------------------------|
E|--9------------------------------------6----------------------------------|

mario
 p.m----|        p.m               p.m 
e|--------------------------------------12-11-9----------------------------------------|
B|--------10/12---------------------------------12-12-9-13h12--------------------------|
G|---------------11--13--11--9---------------------------------9-11-13-9h11------------|
D|-----9-----------------------------------------------------9-------------------------|
A|--7---------------------------12--9--------------------------------------------------|
E|-------------------------------------------------------------------------------------|

erick

e|--4---------------------------3p2-----------------------------------------|
B|--5--------------------------------5-----------------4--------------------|
G|------------2----------------------------------------4--------------------|
D|-------------------2---------------------------------4--------------------|
A|------------------------------2----------------------2--------------------|
E|--2-----------------------------------------------------------------------|

mario

 p.m----|        p.m                           p.m
e|-----------------------12/14---------------------------------------------------11-16-|
B|--------10/12-----------------12--14--12/14---------------------------------12-------|
G|---------------11--13----------------------------13-11-11-16-16-13-13-11-13----------|
D|-----9-------------------------------------------------------------------------------|
A|--7------------------------------------------12--------------------------------------|
E|-------------------------------------------------------------------------------------|

erick
 
e|--------------------------------------------------------------------------|
B|--------------------------------------------------------------------------|
G|--9------------------------------------6----------------------------------|
D|--9------------------------------------6----------------------------------|
A|--------------------------------------------------------------------------|
E|--9------------------------------------5----------------------------------|

mario

 p.m----|        p.m               p.m                     
e|--------------------------------------12-11-9----------------------------------------|
B|--------10/12---------------------------------12-12-9-9h12---------------------------|
G|---------------11--13--11--9---------------------------------9-11-13-11p9------------|
D|-----9-----------------------------------------------------9-------------------------|
A|--7---------------------------12--9--------------------------------------------------|
E|-------------------------------------------------------------------------------------|

erick

e|--4-----------------------------------------------------------------------|
B|--5-------------------------------4---------------------------------------|
G|--4-------------------------------4---------------------------------------|
D|----------------------------------4---------------------------------------|
A|----------------------------------2---------------------------------------|
E|--2-----------------------------------------------------------------------|

mario
 p.m----|        p.m                           p.m
e|-----------------------12/14---------------------------------------------------11-16-|
B|--------10/12-----------------12--14--12/14---------------------------------12-------|
G|---------------11--13----------------------------13-11-11-16-16-13-13-11-13----------|
D|-----9-------------------------------------------------------------------------------|
A|--7------------------------------------------13--------------------------------------|
E|-------------------------------------------------------------------------------------|

erick
                                               tap harmonics-----|
e|-------------------------------------------------19-----------------------|
B|---------------------------------------7--------------------19------------|
G|--9------------------------------------6----------------------------------|
D|--9------------------------------------6----------------------------------|
A|--------------------------------------------------------------------------|
E|--9------------------------------------6----------------------------------|

mario
 p.m----|        p.m               p.m 
e|--------------------------------------12-11-9---------------------------9-----9~~~---|
B|--------10/12---------------------------------12-12-9-13h12----------12-------12~~~--|
G|---------------11--13--11--9---------------------------------9-11-13----------13~~~--|
D|-----9-----------------------------------------------------9-------------------------|
A|--7---------------------------12--9--------------------------------------------------|
E|-------------------------------------------------------------------------------------|

erick

e|--4---------------------------3p2----------------------------------------------------|
B|--5--------------------------------5-----------------4-------------------------------|
G|------------2----------------------------------------4------------------------9------|
D|-------------------2---------------------------------4------------------------9------|
A|------------------------------2----------------------2-------------------------------|
E|--2---------------------------------------------------------------------------9------|




************************************
| p.m palm mute
| /   slide up
| \   slide down
| h   hammer-on
| p   pull-off
| ~   vibrato
| +   harmonic
| x   Mute note
| b   Bend
| pb  Pre-bend
| br  Bend release
| pbr Pre-bend release
| brb Bend release bend

************************************

            
            
Suggest correction
Creating personal tab
Creating personal tab
You can edit any tab online and save it as your Personal.

You can edit, replace or remove any tab part or add personal notes – all changes will be seen only by you.

Personal tabs can be accessed anytime from any device, even offline.
Learn more »
Give kudos to tab author, rate the tab!
1 2 3 4 5
comments
print report bad tab
guest
You may want to rate the tab now too:
select rating
Wanna post a correction for this tab? Suggest correction