Oops, an error
Loading. Please wait.

All Night Long bass

version 2
version 2

Whole song

484 views 1 this week
2 commentsread comments
1 2 3 4 5
x 3
add to favorites
×
Save as Personal and add changes to this tab that will be seen only by you. Learn more ›
×
You can save this tab as Personal to edit and correct it or add notes. All changes will be seen only by you. Learn more »
launch autoscroll
font size
0
reset
guitar tuner
edit
Autoscroll
slow
fast
+/-
esc
set tempo
stop
Author
Difficulty
--------------------------------------------------------------------------
                            Artist - Chris Beard
                          ***********************
                           Song - All Night Long   
                          ***********************
                          Album - Barwalkin (2005)
                         **************************
                            Tabbed By - Ayreon77
                           **********************
--------------------------------------------------------------------------
Tuning = Standard             



INTRO
******
G|---|--------------|--------------|--------------|--------------|
D|-5-|---3--5-3-----|---3--5-3-----|---3--5-3-----|---3--5-3-----|
A|---|-5--------5---|-5--------5---|-5--------5---|-5--------5-3-|
E|---|------------3-|------------3-|------------3-|--------------|

00:19
G|---3--5-3-----|---3--5-3-----|--------------|--------------|-------12----h---------|
D|-5--------5---|-5--------5---|---3--5-3-----|---3--5-3-----|----10-----10-12---s---|
A|------------3-|--------------|-5--------5---|-5--------5-5-|-12--------------12\---|
E|--------------|------------3-|------------3-|--------------|---------------------7-|

00:40                            
G|---3--5-3-----|--------------|--------------|
D|-5--------5---|---3--5-3-----|--------------|
A|--------------|-5--------5---|-3-4-5--3-4-5-|
E|------------3-|------------3-|--------------|


------------------------
00:52
VERSE 1
********
  My baby said she loved me................
G|---|--------------|--------------|--------------|--------------|
D|---|---3--5-3-----|---3--5-3-----|---3--5-3-----|---3--5-3-----|
A|---|-5--------5---|-5--------5---|-5--------5---|-5--------5-3-|
E|-3-|------------3-|------------3-|------------3-|--------------|


G|---3--5-3-----|---3--5-3-----|--------------|--------------|---5--7-5-----|
D|-5--------5---|-5--------5---|---3--5-3-----|---3--5-3-----|-7--------7---|
A|------------3-|--------------|-5--------5---|-5--------5-5-|------------3-|
E|--------------|------------3-|------------3-|--------------|--------------|

                                
G|---3--5-3-----|--------------|--------------|
D|-5--------5---|---3--5-3-----|--------------|
A|--------------|-5--------5---|-3-4-5--3-4-5-|
E|------------3-|------------3-|--------------|


------------------------
01:44
VERSE 2
********
  My baby squeeze me tight..................
G|---|--------------|--------------|--------------|--------------|
D|---|---3--5-3-----|---3--5-3-----|---3--5-3-----|---3--5-3-----|
A|---|-5--------5---|-5--------5---|-5--------5---|-5--------5-3-|
E|-3-|------------3-|------------3-|------------3-|--------------|


G|---3--5-3-----|---3--5-3-----|--------------|--------------|---5--7-5-----|
D|-5--------5---|-5--------5---|---3--5-3-----|---3--5-3-----|-7--------7---|
A|------------3-|--------------|-5--------5---|-5--------5-5-|------------3-|
E|--------------|------------3-|------------3-|--------------|--------------|

                                 
G|---3--5-3-----|--------------|--------------|
D|-5--------5---|---3--5-3-----|--------------|
A|--------------|-5--------5---|-3-4-5--3-4-5-|
E|------------3-|------------3-|--------------|


------------------------
02:36
SAX
****
G|---|--------------|--------------|--------------|--------------|
D|---|---3--5-3-----|---3--5-3-----|---3--5-3-----|---3--5-3-----|
A|---|-5--------5---|-5--------5---|-5--------5---|-5--------5-3-|
E|-3-|------------3-|------------3-|------------3-|--------------|


G|---3--5-3-----|---3--5-3-----|--------------|--------------|---5--7-5-----|
D|-5--------5---|-5--------5---|---3--5-3-----|---3--5-3-----|-7--------7---|
A|------------3-|--------------|-5--------5---|-5--------5-5-|------------3-|
E|--------------|------------3-|------------3-|--------------|--------------|

                         
G|---3--5-3-----|--------------|--------------|
D|-5--------5---|---3--5-3-----|--------------|
A|--------------|-5--------5---|-3-4-5--3-4-5-|
E|------------3-|------------3-|--------------|


------------------------
03:28
VERSE 3
********
  My baby takes my blues away...............
G|---|--------------|--------------|--------------|--------------|
D|---|---3--5-3-----|---3--5-3-----|---3--5-3-----|---3--5-3-----|
A|---|-5--------5---|-5--------5---|-5--------5---|-5--------5-3-|
E|-3-|------------3-|------------3-|------------3-|--------------|


G|---3--5-3-----|---3--5-3-----|--------------|--------------|---5--7-5-----|
D|-5--------5---|-5--------5---|---3--5-3-----|---3--5-3-----|-7--------7---|
A|------------3-|--------------|-5--------5---|-5--------5-5-|------------3-|
E|--------------|------------3-|------------3-|--------------|--------------|

                        
G|---3--5-3-----|--------------|--------------|
D|-5--------5---|---3--5-3-----|--------------|
A|--------------|-5--------5---|-3-4-5--3-4-5-|
E|------------3-|------------3-|--------------|


------------------------
04:20
SOLO
*****
G|---|--------------|--------------|--------------|--------------|
D|---|---3--5-3-----|---3--5-3-----|---3--5-3-----|---3--5-3-----|
A|---|-5--------5---|-5--------5---|-5--------5---|-5--------5-3-|
E|-3-|------------3-|------------3-|------------3-|--------------|


G|---3--5-3-----|---3--5-3-----|--------------|--------------|---5--7-5-----|
D|-5--------5---|-5--------5---|---3--5-3-----|---3--5-3-----|-7--------7---|
A|------------3-|--------------|-5--------5---|-5--------5-5-|------------3-|
E|--------------|------------3-|------------3-|--------------|--------------|

                         
G|---3--5-3-----|--------------|--------------|
D|-5--------5---|---3--5-3-----|--------------|
A|--------------|-5--------5---|-3-4-5--3-4-5-|
E|------------3-|------------3-|--------------|


------------------------
05:13
VERSE 4
********
  My baby said she loved me..................
G|---|--------------|--------------|--------------|--------------|
D|---|---3--5-3-----|---3--5-3-----|---3--5-3-----|---3--5-3-----|
A|---|-5--------5---|-5--------5---|-5--------5---|-5--------5-3-|
E|-3-|------------3-|------------3-|------------3-|--------------|


G|---3--5-3-----|---3--5-3-----|--------------|--------------|---5--7-5-----|
D|-5--------5---|-5--------5---|---3--5-3-----|---3--5-3-----|-7--------7---|
A|------------3-|--------------|-5--------5---|-5--------5-5-|------------3-|
E|--------------|------------3-|------------3-|--------------|--------------|


------------------------
05:57
OUTRO
******
G|---|--------------|-----|
D|---|---3--5-3-----|-4-5-|
A|---|-5--------5---|-----|
E|-3-|------------3-|-----|



ENJOY..............

            
            
Suggest correction
Creating personal tab
Creating personal tab
You can edit any tab online and save it as your Personal.

You can edit, replace or remove any tab part or add personal notes – all changes will be seen only by you.

Personal tabs can be accessed anytime from any device, even offline.
Learn more »
Give kudos to tab author, rate the tab!
1 2 3 4 5
comments
print report bad tab
2 comments total.
0 reply
dreventura114 10 Jul 16, 2016 05:24 AM

GREAT BASS TABS.. VERY ACCURATE.. THANKS!!

0 reply
ayreon77 21,833 Jul 16, 2016 06:08 AM

thx for the great comment and the 5 star rate, appreciate it. :)

guest
You may want to rate the tab now too:
select rating
Wanna post a correction for this tab? Suggest correction