Oops, an error
Loading. Please wait.

Autumn Leaves tab

1,108 views 9 this week
no commentswrite comment
1 2 3 4 5
3 more votes to show rating
add to favorites
×
Save as Personal and add changes to this tab that will be seen only by you. Learn more ›
×
You can save this tab as Personal to edit and correct it or add notes. All changes will be seen only by you. Learn more »
launch autoscroll
font size
0
reset
how to read this tab
guitar tuner
edit
Autoscroll
slow
fast
+/-
esc
set tempo
stop
About this tab version
First tab to Autumn Leaves by Chris Brown. Was this info helpful? Yes No
Artist: Chris Brown
Song: Autumn Leaves

[Intro]

Play this when the songs starts.

e|------1-------------5--12--7h8p7--5~~--5p3-5p3------------------------------|
B|------1------3/s6-----------------------------5p3--------5s6-5p3------------|
G|------2------------------------------------------5p4------------5-----------|
D|-----3----------------------------------------------7p5----------7p5h7~~\---| x2
A|---3------------------------------------------------------------------------|
E|-1--------------------------------------------------------------------------|

Then, play an Am.

e|------0---------------------------------------------------------------------|
B|------1---------------------------------------------------------------------|
G|-----2----------------------------------------------------------------------|
D|---2------------------------------------------------------------------------|
A|-0--------------------------------------------------------------------------|
E|----------------------------------------------------------------------------|

Finally, play and Am then a G.

e|------0------------3--------------------------------------------------------|
B|------1------------3--------------------------------------------------------|
G|-----2-------------0--------------------------------------------------------|
D|---2-------------0----------------------------------------------------------|
A|-0-------------2------------------------------------------------------------|
E|-------------3--------------------------------------------------------------|


[Verse]

When the lyrics start, play this: an F#, a C, another F#, an Am and finally a G.

e|-------1------------0------------1------------0------------3----------------|
B|-------1------------1------------1------------1------------3----------------|
G|-------2----------0--------------2----------2--------------0----------------|
D|-----3----------2--------------3----------2--------------0------------------|
A|---3----------3--------------3----------0--------------2--------------------|
E|-1-------------------------1-------------------------3----------------------|

[Chorus]

The chorus is basically the same as the verse.

e|-------1------------0------------1------------0------------3----------------|
B|-------1------------1------------1------------1------------3----------------|
G|-------2----------0--------------2----------2--------------0----------------|
D|-----3----------2--------------3----------2--------------0------------------|
A|---3----------3--------------3----------0--------------2--------------------|
E|-1-------------------------1-------------------------3----------------------|

[Verse]

Play the same as the verse during Kendrick Lamar's part.

e|-------1------------0------------1------------0------------3----------------|
B|-------1------------1------------1------------1------------3----------------|
G|-------2----------0--------------2----------2--------------0----------------|
D|-----3----------2--------------3----------2--------------0------------------|
A|---3----------3--------------3----------0--------------2--------------------|
E|-1-------------------------1-------------------------3----------------------|

That can be played the entire song. I hope you enjoy playing it!

************************************

| h   Hammer-on
| p   Pull-off
| /   Slide up
| \   Slide down
| ~   Vibrato

************************************

            
            
Suggest correction
Creating personal tab
Creating personal tab
You can edit any tab online and save it as your Personal.

You can edit, replace or remove any tab part or add personal notes – all changes will be seen only by you.

Personal tabs can be accessed anytime from any device, even offline.
Learn more »
Give kudos to tab author, rate the tab!
1 2 3 4 5
comments
print report bad tab
guest
You may want to rate the tab now too:
select rating
Wanna post a correction for this tab? Suggest correction