Oops, an error
Loading. Please wait.

Black Hole Sun Acoustic tab

version 1
version 1

Whole song

Interactive

Video

15,343 views 162 this week
5 commentsread comments
1 2 3 4 5
x 30
add to favorites
×
Save as Personal and add changes to this tab that will be seen only by you. Learn more ›
×
You can save this tab as Personal to edit and correct it or add notes. All changes will be seen only by you. Learn more »
launch autoscroll
font size
0
reset
how to read this tab
guitar tuner
edit
Autoscroll
slow
fast
+/-
esc
set tempo
stop
BLACK HOLE SUN (acoustic)       -       chris cornell

https://www.youtube.com/watch?v=NvJNROkbx1Q

tuning: DADGBe

Intro:
  Gsus4               Gsus4/Bb       F5
  1  n  2  j  3  j  4  r 1  n  2  j    1  n  2  j  3  j  4  r
e|----------------------/-------------/----------------------/
B|----------------------/-------------/----------------------/
G|---------5------------/---------5---/---------5------------/
D|------5--------5------/------5------/------3--------3------/
A|---5--------------5---/---5---------/---3--------------3---/
D|5--------------------5/8-----------s/3--------------------0/


     E5                     Ebsus4                 Amadd4/D
e|----------------------/----------------------/-------------/--/
B|----------------------/----------------------/-------------/--/
G|---------4------------/---------1------------/---------2---/--/
D|------2--------2------/------1--------1------/------0------/--/
A|---2--------------2---/---1--------------1---/---3---------/--/
D|2--------------------0/1--------------------1/0------------/--/

Verse
        Gsus4                  Gsus4/Bb          F5
      e|----------------------/-----------------/----------------------/
      B|---------5------------/-----------------/----------------------/
      G|---------------5------/---------5-------/---------5------------/
      D|------5-----------5---/------5----------/------3--------3------/
      A|---5------------------/---5-------------/---3--------------3---/
      D|5--------------------5/8------------8s--/3--------------------0/
1 In my eyes,             indisposed,       in disguis     as  no-one

   E5                     Ebsus4                 Amadd4/D
e|-----------------------/----------------------/----------------------/
B|-----------------------/----------------------/----------------------/
G|----------4------------/---------1------------/---------2------------/
D|-------2--------2------/------1--------1------/------0--------0-----0/
A|----2--------------2---/---1--------------1---/---3--------------3---/
D|-2--------------------0/1--------------------1/0---------------------/
1 knows         hides the face          lies the snake         ‘n the

  G5      C5/F    G#5
e|------------------------------/
B|------------------------------/
G|------------------------------/
D|----5-------5-------6---------/
A|--5-------3-------6-----------/
D|5-----5s3-----3s6-------------/
1 Sun in    my disgrace   Boilin

        Gsus4                Gsus4/Bb          F5
      e|--------------------/-----------------/-----------------------/
      B|--------------------/-----------------/-----------------------/
      G|---------5----------/---------5-------/------------5----------/
      D|------5------5------/------5----------/---------3------3------/
      A|---5------------5---/---5-------------/------3------------3---/
      D|5------------------5/8------------8s--/---3------------------0/
2       heat         summer stench      ‘neath the black the sky looks

     E5                   Ebsus4              Amadd4/D
e|-----------------------/-------------------/--------------------/
B|-----------------------/-------------------/--------------------/
G|------------4----------/---------1---------/---------2----------/
D|---------2------2------/------1-----1------/------0------0-----0/
A|------2------------2---/---1-----------1---/---3------------3---/
D|---2------------------0/1-----------------1/0-------------------/
2   dead        Call  my  name     through the cream       and  I'll

    G5      C5/F    G#5
  e|-------------------------/-----/
  B|-------------------------/-----/
  G|-------------------------/-----/
  D|----5-------5-------6----/-----/
  A|--5-------3-------6------/-----/
  D|5-----5s3-----3s6--------/-----/
2 hear you scream  again      Black hole


Pre-chorus
  Ebsus4               Amadd4/D             G5          G5/F
e|--------------------/--------------------/----------------------/
B|--------------------/--------------------/----------------------/
G|---------1----------/---------2----------/----------------------/
D|------1------1------/------0------0------/------5-----------5---/
A|---1------------1---/---3------------3---/---5-----------5------/
D|1------------------1/0------------------0/5--------5--3--------3/
  Sun       won't you come            and  wash      away      the

  Bb                    Ebsus4               Amadd4/d
e|---------------------/--------------------/--------------------/
B|---------3-----------/--------------------/--------------------/
G|------3------3-------/---------1----------/---------2----------/
D|---3------------3----/------1------1------/------0------0------/
A|1------------------0-/---1------------1---/---3------------3---/
D|---------------------/1------------------1/0------------------0/
  rain        Black hole sun       won't you come        won't you

  C
  1 n 2 j 3 j 4 r  1
e|3-----3-----3---/2------------/
B|5-----5-----3---/3------------/
G|5-----5-----5---/2------------/
D|5-----5-----5---/0------------/
A|3-----3-----3---/-------------/
D|----------------/2------------/
  come,       won't you come      Stutter -

Verse:
        Gsus4                Gsus4/Bb          F5
      e|--------------------/-----------------/-----------------------/
      B|--------------------/-----------------/-----------------------/
      G|---------5----------/---------5-------/------------5----------/
      D|------5------5------/------5----------/---------3------3------/
      A|---5------------5---/---5-------------/------3------------3---/
      D|5------------------5/8------------8s--/---3------------------0/
3       ing,         cold and damp,     steal the warm wind   tired


     E5                   Ebsus4              Amadd4/D
e|-----------------------/-------------------/--------------------/
B|-----------------------/-------------------/--------------------/
G|------------4----------/---------1---------/---------2----------/
D|---------2------2------/------1-----1------/------0------0-----0/
A|------2------------2---/---1-----------1---/---3------------3---/
D|---2------------------0/1-----------------1/0-------------------/
3 friend        Times are gone    for   honest men and sometimes


  G5      C5/F    G#5
e|------------------------------/
B|------------------------------/
G|------------------------------/
D|----5-------5-------6---------/
A|--5-------3-------6-----------/
D|5-----5s3-----3s6-------------/
3 far too long for snakes     In my


        Gsus4                Gsus4/Bb          F5
      e|--------------------/-----------------/-----------------------/
      B|--------------------/-----------------/-----------------------/
      G|---------5----------/---------5-------/------------5----------/
      D|------5------5------/------5----------/---------3------3------/
      A|---5------------5---/---5-------------/------3------------3---/
      D|5------------------5/8------------8s--/---3------------------0/
4       shoes,      a walking sleep,       and my youth I pray to

     E5                   Ebsus4              Amadd4/D
e|-----------------------/-------------------/--------------------/
B|-----------------------/-------------------/--------------------/
G|------------4----------/---------1---------/---------2----------/
D|---------2------2------/------1-----1------/------0------0-----0/
A|------2------------2---/---1-----------1---/---3------------3---/
D|---2------------------0/1-----------------1/0-------------------/
4 keep           Heaven   send     hell  a –   way,        no-one

  G5      C5/F    G#5
e|------------------------------/
B|------------------------------/
G|------------------------------/
D|----5-------5-------6---------/
A|--5-------3-------6-----------/
D|5-----5s3-----3s6-------------/
4 sings like you anymore     Black hole


Pre-chorus
  Ebsus4               Amadd4/D             G5          G5/F
e|--------------------/--------------------/----------------------/
B|--------------------/--------------------/----------------------/
G|---------1----------/---------2----------/----------------------/
D|------1------1------/------0------0------/------5-----------5---/
A|---1------------1---/---3------------3---/---5-----------5------/
D|1------------------1/0------------------0/5--------5--3--------3/
4 Sun       won't you come            and  wash      away      the

  Bb                    Ebsus4               Amadd4/d
e|---------------------/--------------------/--------------------/
B|---------3-----------/--------------------/--------------------/
G|------3------3-------/---------1----------/---------2----------/
D|---3------------3----/------1------1------/------0------0------/
A|1------------------0-/---1------------1---/---3------------3---/
D|---------------------/1------------------1/0------------------0/
4 rain        Black hole sun     won't you   come        won't you

  C             Bb
e|3---------3-3/1------1-1-----/
B|5---------5-3/3------3-3-----/
G|5---------5-5/3------3-3-----/
D|5---------5-5/3------3-3-----/
A|3---------3-3/1------1-1-----/
D|-------------/---------------/
4 come,                Black hole

  Ebsus4               Amadd4/D             G5          G5/F
e|--------------------/--------------------/----------------------/
B|--------------------/--------------------/----------------------/
G|---------1----------/---------2----------/----------------------/
D|------1------1------/------0------0------/------5-----------5---/
A|---1------------1---/---3------------3---/---5-----------5------/
D|1------------------1/0------------------0/5--------5--3--------3/
5 sun       won’t you come            and  wash      away      the

  Bb                    Ebsus4               Amadd4/d
e|---------------------/--------------------/--------------------/
B|---------3-----------/--------------------/--------------------/
G|------3------3-------/---------1----------/---------2----------/
D|---3------------3----/------1------1------/------0------0------/
A|1------------------0-/---1------------1---/---3------------3---/
D|---------------------/1------------------1/0------------------0/
5 rain        Black hole sun     won’t you   come

Chorus:
                 Csus2                Bbsus2              D/A
                 1 n 2 j 3     j 4 r 1 n 2 j 3     j 4 r 1       3   4
e|--------------/3-3-3-3-3-3-3-3-3-3/1-1-1-1-1-1-1-1-1-1/2-2-2-2-2-2-2-2
B|--------------/3-3-3-3-3-3-3-3-3-3/1-1-1-1-1-1-1-1-1-1/3-3-3-3-3-3-3-3
G|--------------/5-5-5-5-5-5-5-5-5-5/3-3-3-3-3-3-3-3-3-3/2-2-2-2-2-2-2-2
D|--------------/5-5-5-5-5-5-5-5-5-5/3-3-3-3-3-3-3-3-3-3/0-0-0-0-0-0-0-0
A|--------------/3-3-3-3-3-3-3-3-3-3/1-1-1-1-1-1-1-1-1-1/0-0-0-0-0-0-0-0
D|--------------/-------------------/-------------------/---------------
5 won’t you come         black hole  sun     black hole  sun     won’t you

  Csus2                Bbsus2              D/A
  1 n 2 j 3     j 4 r 1 n 2 j 3     j 4 r 1       3   4
e|3-3-3-3-3-3-3-3-3-3/1-1-1-1-1-1-1-1-1-1/2-2-2-2-2-2-2-2
B|3-3-3-3-3-3-3-3-3-3/1-1-1-1-1-1-1-1-1-1/3-3-3-3-3-3-3-3
G|5-5-5-5-5-5-5-5-5-5/3-3-3-3-3-3-3-3-3-3/2-2-2-2-2-2-2-2
D|5-5-5-5-5-5-5-5-5-5/3-3-3-3-3-3-3-3-3-3/0-0-0-0-0-0-0-0
A|3-3-3-3-3-3-3-3-3-3/1-1-1-1-1-1-1-1-1-1/0-0-0-0-0-0-0-0
D|-------------------/-------------------/---------------
6 come    black hole  sun     black hole  sun          won’t you

  Csus2                Bbsus2              D/A
  1 n 2 j 3     j 4 r 1 n 2 j 3     j 4 r 1       3   4
e|3-3-3-3-3-3-3-3-3-3/1-1-1-1-1-1-1-1-1-1/2-2-2-2-2-2-2-2
B|3-3-3-3-3-3-3-3-3-3/1-1-1-1-1-1-1-1-1-1/3-3-3-3-3-3-3-3
G|5-5-5-5-5-5-5-5-5-5/3-3-3-3-3-3-3-3-3-3/2-2-2-2-2-2-2-2
D|5-5-5-5-5-5-5-5-5-5/3-3-3-3-3-3-3-3-3-3/0-0-0-0-0-0-0-0
A|3-3-3-3-3-3-3-3-3-3/1-1-1-1-1-1-1-1-1-1/0-0-0-0-0-0-0-0
D|-------------------/-------------------/---------------
7 come    black hole  sun     black hole  sun     won’t you

  Csus2                Bbsus2              D/A
  1 n 2 j 3     j 4 r 1 n 2 j 3     j 4 r 1       3   4
e|3-3-3-3-3-3-3-3-3-3/1-1-1-1-1-1-1-1-1-1/2-2-2-2-2-2-2-2
B|3-3-3-3-3-3-3-3-3-3/1-1-1-1-1-1-1-1-1-1/3-3-3-3-3-3-3-3
G|5-5-5-5-5-5-5-5-5-5/3-3-3-3-3-3-3-3-3-3/2-2-2-2-2-2-2-2
D|5-5-5-5-5-5-5-5-5-5/3-3-3-3-3-3-3-3-3-3/0-0-0-0-0-0-0-0
A|3-3-3-3-3-3-3-3-3-3/1-1-1-1-1-1-1-1-1-1/0-0-0-0-0-0-0-0
D|-------------------/-------------------/---------------
8 come    black hole  sun     black hole  sun

Break:
  1 n 2 j 3   j 4 r /1 n 2 j 3 j 4 r 5 e
e|------------------/--------3-----3----/
B|------------------/--------3-----3----/
G|------------------/--------4-----4----/     [3x]
D|------------------/--3-----3-----3----/
A|3-2---0---2/3-----/--3-----3-----3----/
D|--------------5-4-/--3-----3-----3---0/

  1 n 2 j 3   j 4 r /1 n 2 j 3 j 4 r 5 e 1 n 2 j 3 j 4 r
e|------------------/--------3-----3----/----------------/
B|------------------/--------3-----3----/----------------/
G|------------------/--------4-----4----/4---------------/
D|------------------/--3-----3-----3----/3s5-5-----------/
A|3-2---0---2/3-----/--3-----3-----3----/3s5-5-----------/
D|--------------5-4-/--3-----3-----3----/3s5-5-----------/
9                                                        Hang my

Verse
        Gsus4                Gsus4/Bb          F5
      e|--------------------/-----------------/-----------------------/
      B|--------------------/-----------------/-----------------------/
      G|---------5----------/---------5-------/------------5----------/
      D|------5------5------/------5----------/---------3------3------/
      A|---5------------5---/---5-------------/------3------------3---/
      D|5------------------5/8----------------/---3------------------0/
9       head        drown my fears     ‘till you all just disap -

     E5
e|-----------------------/------/
B|-----------------------/------/
G|------------4----------/------/
D|---------2------2------/------/
A|------2------------2---/------/
D|---2------------------0/------/
9   pear                  Black hole

Pre-chorus
   Ebsus4               Amadd4/D             G5          G5/F
 e|--------------------/--------------------/----------------------/
 B|--------------------/--------------------/----------------------/
 G|---------1----------/---------2----------/----------------------/
 D|------1------1------/------0------0------/------5-----------5---/
 A|---1------------1---/---3------------3---/---5-----------5------/
 D|1------------------1/0------------------0/5--------5--3--------3/
10 Sun       won't you come            and  wash       away      the

   Bb                    Ebsus4               Amadd4/d
 e|---------------------/--------------------/--------------------/
 B|---------3-----------/--------------------/--------------------/
 G|------3------3-------/---------1----------/---------2----------/
 D|---3------------3----/------1------1------/------0------0------/
 A|1------------------0-/---1------------1---/---3------------3---/
 D|---------------------/1------------------1/0------------------0/
10 rain       Black hole sun      won't you   come        won't you

   C             Bb
 e|3---------3-3/1------1-1-----/
 B|5---------5-3/3------3-3-----/
 G|5---------5-5/3------3-3-----/
 D|5---------5-5/3------3-3-----/
 A|3---------3-3/1------1-1-----/
 D|-------------/--------------0/
10 come,                Black hole

   Ebsus4               Amadd4/D             G5          G5/F
 e|--------------------/--------------------/----------------------/
 B|--------------------/--------------------/----------------------/
 G|---------1----------/---------2----------/----------------------/
 D|------1------1------/------0------0------/------5-----------5---/
 A|---1------------1---/---3------------3---/---5-----------5------/
 D|1------------------1/0------------------0/5--------5--3--------3/
11 sun       won’t you come            and  wash       away      the

   Bb                    Ebsus4               Amadd4/d
 e|---------------------/--------------------/--------------------/
 B|---------3-----------/--------------------/--------------------/
 G|------3------3-------/---------1----------/---------2----------/
 D|---3------------3----/------1------1------/------0-------------/
 A|1------------------0-/---1------------1---/---3----------------/
 D|---------------------/1------------------1/0-------------------/
11 rain       Black hole sun      won’t you   come        won’t you come

Chorus:
   Csus2                Bbsus2              D/A
   1 n 2 j 3     j 4 r 1 n 2 j 3     j 4 r 1       3   4
 e|3-3-3-3-3-3-3-3-3-3/1-1-1-1-1-1-1-1-1-1/2-2-2-2-2-2-2-2
 B|3-3-3-3-3-3-3-3-3-3/1-1-1-1-1-1-1-1-1-1/3-3-3-3-3-3-3-3
 G|5-5-5-5-5-5-5-5-5-5/3-3-3-3-3-3-3-3-3-3/2-2-2-2-2-2-2-2
 D|5-5-5-5-5-5-5-5-5-5/3-3-3-3-3-3-3-3-3-3/0-0-0-0-0-0-0-0
 A|3-3-3-3-3-3-3-3-3-3/1-1-1-1-1-1-1-1-1-1/0-0-0-0-0-0-0-0
 D|-------------------/-------------------/---------------
11         black hole  sun      black hole  sun     won’t you

   Csus2                Bbsus2              D/A
   1 n 2 j 3     j 4 r 1 n 2 j 3     j 4 r 1       3   4
 e|3-3-3-3-3-3-3-3-3-3/1-1-1-1-1-1-1-1-1-1/2-2-2-2-2-2-2-2
 B|3-3-3-3-3-3-3-3-3-3/1-1-1-1-1-1-1-1-1-1/3-3-3-3-3-3-3-3
 G|5-5-5-5-5-5-5-5-5-5/3-3-3-3-3-3-3-3-3-3/2-2-2-2-2-2-2-2
 D|5-5-5-5-5-5-5-5-5-5/3-3-3-3-3-3-3-3-3-3/0-0-0-0-0-0-0-0
 A|3-3-3-3-3-3-3-3-3-3/1-1-1-1-1-1-1-1-1-1/0-0-0-0-0-0-0-0
 D|-------------------/-------------------/---------------
12 come    black hole  sun      black hole  sun          won’t you

   Csus2                Bbsus2              D/A
   1 n 2 j 3     j 4 r 1 n 2 j 3     j 4 r 1       3   4
 e|3-3-3-3-3-3-3-3-3-3/1-1-1-1-1-1-1-1-1-1/2-2-2-2-2-2-2-2
 B|3-3-3-3-3-3-3-3-3-3/1-1-1-1-1-1-1-1-1-1/3-3-3-3-3-3-3-3
 G|5-5-5-5-5-5-5-5-5-5/3-3-3-3-3-3-3-3-3-3/2-2-2-2-2-2-2-2
 D|5-5-5-5-5-5-5-5-5-5/3-3-3-3-3-3-3-3-3-3/0-0-0-0-0-0-0-0
 A|3-3-3-3-3-3-3-3-3-3/1-1-1-1-1-1-1-1-1-1/0-0-0-0-0-0-0-0
 D|-------------------/-------------------/---------------
13 come    black hole  sun     black hole  sun     won’t you

   Csus2                Bbsus2              D/A
   1 n 2 j 3     j 4 r 1 n 2 j 3     j 4 r 1       3   4
 e|3-3-3-3-3-3-3-3-3-3/1-1-1-1-1-1-1-1-1-1/2-2-2-2-2-2-2-2
 B|3-3-3-3-3-3-3-3-3-3/1-1-1-1-1-1-1-1-1-1/3-3-3-3-3-3-3-3
 G|5-5-5-5-5-5-5-5-5-5/3-3-3-3-3-3-3-3-3-3/2-2-2-2-2-2-2-2
 D|5-5-5-5-5-5-5-5-5-5/3-3-3-3-3-3-3-3-3-3/0-0-0-0-0-0-0-0
 A|3-3-3-3-3-3-3-3-3-3/1-1-1-1-1-1-1-1-1-1/0-0-0-0-0-0-0-0
 D|-------------------/-------------------/---------------
14 come    black hole  sun     black hole  sun

Outro:
  Csus2                Bbsus2              D/A
e|3-3-3-3-3-3-3-3-3-3/1-1-1-1-1-1-1-1-1-1/2-2-2-2-2-2-2-2
B|3-3-3-3-3-3-3-3-3-3/1-1-1-1-1-1-1-1-1-1/3-3-3-3-3-3-3-3
G|5-5-5-5-5-5-5-5-5-5/3-3-3-3-3-3-3-3-3-3/2-2-2-2-2-2-2-2
D|5-5-5-5-5-5-5-5-5-5/3-3-3-3-3-3-3-3-3-3/0-0-0-0-0-0-0-0
A|3-3-3-3-3-3-3-3-3-3/1-1-1-1-1-1-1-1-1-1/0-0-0-0-0-0-0-0
D|-------------------/-------------------/---------------
15  Heeeeeeeeeeeeeeeeeeeeeeeeaaaaaaaaaaaaaaaaaaaaaaaaah
16  Heeeeeeeeeeeeeeeeeeeeeeeeaaaaaaaaaaaaaaaaaaaaaaaaah
17          heeeeeeeeeeeeeeeeeeeeeeeeeeeeeeeaaaaaaaaaah
18        black hole  sun      black hole  sun


  1 n 2 j 3   j 4 r /1 n 2 j 3 j 4 r 5 e 1 n 2 j 3 j 4 r
e|------------------/--------3-----3----/----------------/
B|------------------/--------3-----3----/----------------/
G|------------------/--------4-----4----/4---------------/
D|------------------/--3-----3-----3----/3s5-5-----------/
A|3-2---0---2/3-----/--3-----3-----3----/3s5-5-----------/
D|--------------5-4-/--3-----3-----3---0/3s5-5-----------/

            
            
Suggest correction
Creating personal tab
Creating personal tab
You can edit any tab online and save it as your Personal.

You can edit, replace or remove any tab part or add personal notes – all changes will be seen only by you.

Personal tabs can be accessed anytime from any device, even offline.
Learn more »
comments
print report bad tab
5 comments total. Showing first comments.
0 reply
JelledFro 26 Dec 26, 2016 05:55 PM, edited on May 31 2017, 07:14 pm

Why are the chords not viewable in this tab? I would really love to mix the tapping (for the intro) and playing the chords, so you can sing the song, without to much effort.

Edit: what I meant is when i hoover over the chord, on this tab only, it doesn't show the little the pop up with chord diagrams like it usually does.

0 reply
redbird77 10 Apr 04, 2017 04:50 PM

they are there 😀 right ober the tabs

0 reply
cvollick1 10 May 29, 2017 12:04 PM

Listen.. in one whole day I've watched enough live Chris Cornell to know this tab is correct! You nailed it man! Anytime he plays acoustic this is how he does it! Well done, and thank you!

guest
You may want to rate the tab now too:
select rating
Wanna post a correction for this tab? Suggest correction