Oops, an error
Loading. Please wait.

Nearly Forgot My Broken Heart chords

version 2
version 2

Whole song

68,616 views 345 this week
10 commentsread comments
1 2 3 4 5
x 59
add to favorites
×
Save as Personal and add changes to this tab that will be seen only by you. Learn more ›
×
You can save this tab as Personal to edit and correct it or add notes. All changes will be seen only by you. Learn more »
launch autoscroll
font size
0
reset
transpose
0
reset
simplify chords
display chords
guitar tuner
edit
Autoscroll
slow
fast
+/-
esc
set tempo
stop
Author
Strumming
There is no strumming pattern for this song yet. and get +5 IQ
ENG:
Where the chords are missing, is because they are not played as chords, but as single notes.
You can see the tabs for these notes at the bottom of the page.
If you want to play the first verse with chords, it sounds the same as the second verse.

ITA:
Dove non ci sono scritti gli accordi, è perché il pezzo è suonato con note singole.
Ho scritto delle piccole tab in fondo alla pagina.
Comunque la prima strofa suona bene con gli stessi accordi delle altre strofe.


[Intro]

e|------5-----5---5---5---5---5---5|
B|----6---5h6----------------------|
G|--7-----------6---7---7---7---7--|
D|---------------------------------| x2
A|---------------------------------|
E|---------------------------------|


[Verse]

e|-----5---5---5---5---5---5---5---5-|-----5---5---5---5---5---5---5---5-|
B|-----------------------------------|-------------------6---6---5---5---|
G|---7---7---4---4---7---7---7---7---|---7---7---4---4-------------------|
D|-----------------------------------|-----------------------------------|
A|-----------------------------------|-----------------------------------|
E|-----------------------------------|-----------------------------------|

e|-----5---5---5---5---5---5---5---5-|-----5---5---5---5---5---5---5---5-|---5---5---5---5-|
B|-----------------------------------|---6---6-----------5---5---5---5---|-5---5---5---5---|
G|---7---7---4---4---7---7---4---4---|-----------4---4-------------------|-----------------|
D|-----------------------------------|-----------------------------------|-----------------|
A|-----------------------------------|-----------------------------------|-----------------|
E|-----------------------------------|-----------------------------------|-----------------|

Every time I stare into the sun
Trying to find a reason to go on
All I ever get is burned and blind,
Until the sky bleeds the pouring rain

                Dm       G        Dm
When you came along the time was right
                  Dm     G       F
Pulled me like an apple red and ripe
A            Dm       G      Dm
Wasn't very long you took a bite
     G       F            G         A
And did me wrong, and it serves me right


[Chorus]

       Dm        A       F     G
And I nearly forgot my broken heart
      Dm        G      Dm     A
It's taking me miles away,
          Dm       Dm/Db   Dm/C   Dm/B
From the memory of how it broke apart
F           A    Dm
Here we go round again, again


[Verse 2]

              Dm    G         Dm
Every little key unlocks the door,
             Dm      G     F
Every little secret has a lie
A                 Dm     G      Dm
Trying to take a picture of the sun
    G         F       G       A
It won't help you to see the light
              Dm    G        Dm
Every little word upon your lips
                Dm         G          F
Makes a little cut where blood pours out
A             Dm       G      Dm       G        F
Every little drop of blood a kiss that I won't miss
         G      A
Not for anything


[Chorus]

       Dm        A       F     G
And I nearly forgot my broken heart
      Dm        G      Dm     A
It's taking me miles away,
          Dm       Dm/Db   Dm/C   Dm/B
From the memory of how it broke apart
F           A      C
Here we go round again

               F                       G            A
Every single feeling tells me this is leading to a heart
C                  F                    G
In broken little pieces and you know I need this
D  C  G                     D C G   D C G
Like a hole in the head


[Solo]

Dm G Dm | Dm G G | Dm G Dm | F A
Dm G Dm | Dm G G | Dm G Dm | F A C


[Bridge]

               F                       G            A
Every single feeling tells me this is leading to a heart
C                  F                    G
In broken little pieces and you know I need this
G
Like a hole in the head

And I nearly forgot my broken heart

It's taking me miles away,
          Dm       Dm/Db   Dm/C   Dm/B
From the memory of how it broke apart
F           A      C
Here we go round again


[Chorus]

       Dm        A       F     G
And I nearly forgot my broken heart
      Dm        G      Dm     A
It's taking me miles away,
          Dm       Dm/Db   Dm/C   Dm/B
From the memory of how it broke apart
F           A      D C G
Here we go round again

D C G
Here we go round again
D C G
Here we go round again
D C G
Here we go round again

(Ad libitum)


[Intro]

e|------5-----5---5---5---5---5---5|
B|----6---5h6----------------------|
G|--7-----------6---7---7---7---7--|
D|---------------------------------|
A|---------------------------------|
E|---------------------------------|  x2


[Verse]

     |   |   |   |   |   |   |   |      |    |   |   |   |   |   |   |
e|-----5---5---5---5---5---5---5---5-|-----5---5---5---5---5---5---5---5-|
B|-----------------------------------|-------------------6---6---5---5---|
G|---7---7---4---4---7---7---7---7---|---7---7---4---4-------------------|
D|-----------------------------------|-----------------------------------|
A|-----------------------------------|-----------------------------------|
E|-----------------------------------|-----------------------------------|

     |   |   |   |   |   |   |   |       |   |   |   |   |   |   |   |     |   |   |   |
e|-----5---5---5---5---5---5---5---5-|-----5---5---5---5---5---5---5---5-|---5---5---5---5-|
B|-----------------------------------|---6---6-----------5---5---5---5---|-5---5---5---5---|
G|---7---7---4---4---7---7---4---4---|-----------4---4-------------------|-----------------|
D|-----------------------------------|-----------------------------------|-----------------|
A|-----------------------------------|-----------------------------------|-----------------|
E|-----------------------------------|-----------------------------------|-----------------|

*****************

h   Hammer on

*****************

            
            
Suggest correction
Creating personal tab
Creating personal tab
You can edit any tab online and save it as your Personal.

You can edit, replace or remove any tab part or add personal notes – all changes will be seen only by you.

Personal tabs can be accessed anytime from any device, even offline.
Learn more »
comments
print report bad tab
10 comments total. Showing first comments.
+3 reply
jay9179 10 Sep 20, 2015 10:41 AM

"From the memory of how *it* broke apart..." Nice tab. Thank you.

+2 reply
rubens.pischedda 83 Sep 22, 2015 04:35 AM

Thanks, I've corrected it :)

0 reply
FIXXXER_07 10 Oct 01, 2015 02:48 PM

They play it a half step down in the live video. Makes that intro lick even more interesting

guest
You may want to rate the tab now too:
select rating
Wanna post a correction for this tab? Suggest correction