Oops, an error
Loading. Please wait.

Watch Out tab

version 2
version 2

Whole song

449 views 1 this week
3 commentsread comments
1 2 3 4 5
2 more votes to show rating
add to favorites
×
Save as Personal and add changes to this tab that will be seen only by you. Learn more ›
×
You can save this tab as Personal to edit and correct it or add notes. All changes will be seen only by you. Learn more »
launch autoscroll
font size
0
reset
how to read this tab
guitar tuner
edit
Autoscroll
slow
fast
+/-
esc
set tempo
stop
Pretty Simple, Just Repeat This Throughout The
Whole Song......Chris Cornell Rocks!!!

e------------------------------------------------|
B------------------------------------------------|
G------------------------------------------------|
D------------------------------------------------|
A--------9--5--7-------------9--5--7--10-9-10-9--|
E------7---------7--------7----------------------|


Tab By Alberto Chavez

            
            
Suggest correction
Creating personal tab
Creating personal tab
You can edit any tab online and save it as your Personal.

You can edit, replace or remove any tab part or add personal notes – all changes will be seen only by you.

Personal tabs can be accessed anytime from any device, even offline.
Learn more »
Give kudos to tab author, rate the tab!
1 2 3 4 5
comments
print report bad tab
3 comments total.
0 reply
alisonfire87 10 Jul 02, 2014 08:04 PM

Clearly wrong.

0 reply
alisonfire87 10 Jul 02, 2014 08:04 PM

Sorry to say but this one is horrible, the main riff goes as follows (as the other tab presented here in UG)

Chris Cornell - Watch Out

It's just beat orientated stuff, so this is played throughout the whole song

|--------------------------------------------------|
|--------------------------------------------------|
|--------------------------------------------------|
|-----5-------3------------5-------3---6-5-6-------|
|-3-------6------3------3------6-------------------|
|--------------------------------------------------|

0 reply
alisonfire87 10 Jul 02, 2014 08:04 PM

Chris Cornell - Watch Out

It's just beat orientated stuff, so this is played throughout the whole song

|--------------------------------------------------|
|--------------------------------------------------|
|--------------------------------------------------|
|-----5-------3------------5-------3---6-5-6-------|
|-3-------6------3------3------6-------------------|
|--------------------------------------------------|

guest
Wanna post a correction for this tab? Suggest correction