Oops, an error
Loading. Please wait.

Bottle Blues tab

version 1
version 1

Whole song

Interactive

287 views 1 this week
no commentswrite comment
1 2 3 4 5
3 more votes to show rating
add to favorites
×
Save as Personal and add changes to this tab that will be seen only by you. Learn more ›
×
You can save this tab as Personal to edit and correct it or add notes. All changes will be seen only by you. Learn more »
launch autoscroll
font size
0
reset
how to read this tab
guitar tuner
edit
Autoscroll
slow
fast
+/-
esc
set tempo
stop
-------------------------------------------------------------------------------
                             BOTTLE BLUES - Chris Duarte
-------------------------------------------------------------------------------


Tabbed by: Isaias Garcia (TexasFury)

Tuning: Half-step down


                  Intro                              
                  TP          TP TP     TP   TP  
      Q     E     Q.     Q    E  Q.     Q    E   
D#||--------5--|--5------L----8--7------5----7--|
A#||--------5--|--5------L----8--7------5----7--|
F#||--7b-------|--5------L----8--7------5----7--|
C#||-----------|--------------------------------|
G#||-----------|--------------------------------|
D#||-----------|--------------------------------|

                                           
                 |-3|                          
  E  S S  E   E  E  S  E  E  S S  E  E  E  E   
-----5--------5-----7s-8----------------------|
--------------5-----7s-8--7-------------------|
-----------------x--8s-9--7--5----------5--7--|
--7----7~-L------x-------------7~-L--7--------|
----------------------------------------------|
----------------------------------------------|


   TP           TP  TP      TP    TP  
   Q.     Q     E   Q.      Q     E   
--10------L----12--10------10----12--|
--10------L----12--10------10----12--|
--10------L----12--10------10----12--|
-------------------------------------|
-------------------------------------|
-------------------------------------|


                 |----|                           
  E   S S E   E  E    S E  E  S S E     E  E  E   
--------5-----5-----7g8-L------------------------|
--------------5-----7g8-L--7---------------------|
-----------------x--8g9-L--7--5------------5--7--|
--7~--L---7~-----x--------------7-L~--5g7--------|
-------------------------------------------------|
-------------------------------------------------|


   TP              TP  TP    TP           
   Q.     Q        E   Q     E  E  E  E   
--12------L----14g15--14----12-----------|
--12------L----14g15--14----12-----------|
--12------L----14g15--14----12-----------|
-----------------------------------5--7--|
--------------------------------7--------|
-----------------------------------------|


                                              Verse 1                              
  TP                                          tr                              
  Q.     E  E    E  E  S S E     E  E  E      H.              Q.     Q    E   
--5------7-----7g8--7---------------------||-------------------------5----7--|
--5------7-----7g8--7---------------------||-------------------------5----7--|
--5------7-----7g8--7--5------------------||-------------------------5-------|
-------------------------7-L~-------5--7--||--5(7)---------------------------|
-------------------------------5g7--------||---------------------------------|
------------------------------------------||---------------------------------|


  tr                                     tr                               
  H.              Q    S  S E   E  E     H.              Q.     E  E  E   
-----------------------5--------------|----------------------------------|
-----------------------5--------------|----------------------------------|
-----------------------5s-8-7s--5-----|--5(7)------------L---------------|
--5(7)-----------------------------7--|----------------------------5--7--|
--------------------------------------|-------------------------7--------|
--------------------------------------|----------------------------------|


  tr                                    tr                               
  Q.        E  E  E  Q.     E  E  E     H.              Q.     E  E  E   
---------------5---------------------|----------------------------------|
---------------5---------------------|----------------------------------|
---------------5---------------------|--7(9)------------L---------------|
--5(7)------L------------------5--7--|----------------------------5--7--|
----------------------------7--------|-------------------------7--------|
-------------------------------------|----------------------------------|


  tr                                      
  Q.        E  E  E  Q    E   E   E   E   
-----------------------------------------|
------------5-----7--5----7b-------------|
------------5--5--7--5----7b--7p--5b-----|
--5(7)---------7-----7----------------7--|
-----------------------------------------|
-----------------------------------------|


  tr                                      
  Q       E  E  E  S  S Q    E  E  E  E   
-------------5---------------------------|
-------------5-----7s-8-7----5-----------|
-------------5-----7s-8-7----5-----------|
--5(7)----7------------------------5--7--|
----------------7---------------7--------|
-----------------------------------------|


  tr                                      
  Q       E  Q      E  Q    E  E  E   E   
-------------5----7g8--7-----------------|
-------------5----7g8--7-----------------|
-------------5----7g8--7----------5h--7--|
--5(7)----7-----------------7--7---------|
-----------------------------------------|
-----------------------------------------|


   tr                              v                
                               |-3-|                
   Q.          Q     S   S  E  E   S  E   E  E  E   
--------------10-----------12--L-------------------|
--------------10----12s-13-12--L--10---------------|
--------------10----12s-13-12--L--10---------------|
--10(12)-----------------------------12~-----5--7--|
------------------------------------------7--------|
---------------------------------------------------|


  tr                                          
  Q       E  Q      E  E  S S E   E   E   E   
-------------5----7g8-----5------------------|
-------------5----7g8--7--5------------------|
-------------5----7g8--7--5------------------|
--5(7)----7-----------------7-L------10--12--|
---------------------------------12----------|
---------------------------------------------|


   tr                                               
   Q.          Q        E   E   S  S   E  E  E  E   
--------------------14g15--------------------------|
--------------12----14g15--14--12------------------|
--------------12----14g15--14--12------------------|
--12(14)--------------------------14~--L-----5--7--|
------------------------------------------7--------|
---------------------------------------------------|


  tr                                     
  Q.        Q      E  E  E  E  E  E  E   
------------5----7g8--7--5--------------||
------------5----7g8--7--5--------------||
------------5----7g8--7--5--------------||
--5(7)----------------------7--5--7--5--||
----------------------------------------||
----------------------------------------||


   Bridge                                               
   E   E   E   E   E   E   E   E   E   E   E   E   
--10--10--10--10--10--10--10--10--10--10--10--10--|
--10--10--10--10--10--10--10--10--10--10--10--10--|
--10--10--10--10--10--10--10--10--10--10--10--10--|
--12--12--12--12--12--12--12--12--12--12--12--12--|
--------------------------------------------------|
--------------------------------------------------|


  E  E  E  E  E  E  E  E  E  E  E  E   
--5--5--5--5--5--5--5--5--5-----------|
--5--5--5--5--5--5--5--5--5-----------|
--5--5--5--5--5--5--5--5--5-----------|
--7--7--7--7--7--7--7--7--7-----5--7--|
-----------------------------7--------|
--------------------------------------|


   E   E   E   E   E   E   E   E   E   E   E   E   
--10--10--10--10--10--10--10--10--10--10--10--10--|
--10--10--10--10--10--10--10--10--10--10--10--10--|
--10--10--10--10--10--10--10--10--10--10--10--10--|
--12--12--12--12--12--12--12--12--12--12--12--12--|
--------------------------------------------------|
--------------------------------------------------|


  E  E  E  Q      E  E  S S E  E  E  E    
-----------5----7g8--7-------------------|
--5--5--5--5----7g8--7--5----------------|
--5--5--5--5----7g8--7--5---------5--7/--|
--7--7--7--7--------------7-L--7---------|
-----------------------------------------|
-----------------------------------------|


               >                                
   E   E   E   E   E   E   E   E   E  E  E  E   
--10--10--10--10--10--10--10--10--10-----------|
--10--10--10--10--10--10--10--10--10-----------|
--10--10--10--10--10--10--10--10--10-----------|
--12--12--12--12--12--12--12--12--12-----5--7--|
--------------------------------------7--------|
-----------------------------------------------|


  E  E  E  E  E    E  E  E  E  E   E  E   
--5--5--5--5-----7g8--7------------------|
--5--5--5--5--5--7g8--7--5---------------|
--5--5--5--5--5--7g8--7--5---------------|
--7--7--7--7--7-------------7--5h--7-----|
--------------------------------------7--|
-----------------------------------------|


  E  E  E  E  E  E  E  E  E  E  E  E     E  E  E  E  E  E  E  Q     E  E  S S  
--------------------------------------|--7--7--7--7--7--7-----------------5---|
--7--7--7--7--7--7--7--7--7--7--7--7--|--------------------5-----------5----5-|
--8--8--8--8--8--8--8--8--8--8--8--8--|--7--7--7--7--7--7-----7b----L---------|
--7--7--7--7--7--7--7--7--7--7--7--7--|--6--6--6--6--6--6---------------------|
--------------------------------------|--7--7--7--7--7--7---------------------|
--7--7--7--7--7--7--7--7--7--7--7--7--|---------------------------------------|


  Guitar Solo 1                                                                  
                 |--3-|        |--|                    |--3-| |3|    
  S   S S  S E   S S  S  Q     S  E    S  S  E   S  S  S  S S S E    
--------8----------8----10b----L-10b--10p-8------8----------5-------|
--8s-10---10-L~--L---10---------------------10~----10p-8s-5---8-----|
----------------------------------------------------------------7b--|
--------------------------------------------------------------------|
--------------------------------------------------------------------|
--------------------------------------------------------------------|


  |--3--|     |-3-| |3|         |--3--|                           
  S  S  S S S E   S S E  S  S S T  T  T S  S S S E   E   S S S S  
----------------------5-------7-5h-7p-5------5-8-Lb--8~--5---5---|
------------------5-L----8b-5-----------8b-5---------------5---5-|
--Lb-Lp-5---5-7b-------------------------------------------------|
----------7------------------------------------------------------|
-----------------------------------------------------------------|
-----------------------------------------------------------------|


  |--3--|                                                        
  S   S S  E   S  S  Q      E    E    E   S  S  S  S   E    E    
--------8------8----10b---------10b-------8----10-10b--Lb--10b--|
--8s-10---10~----10--------10~-------10~----10------------------|
----------------------------------------------------------------|
----------------------------------------------------------------|
----------------------------------------------------------------|
----------------------------------------------------------------|


   |---3--|      |--3--| |---3---|       |--3--|  |-3-|                  
   S   S  S  E   S S   S E   E   E   E   S  S  S  S S S E   S S S S E    
--10b--Lp-8--------------8b--Lb--8-------8----------5-------------------|
------------10~--L-8h-10------------10~----10p-8s-5---8-----------------|
--------------------------------------------------------7b--5---5-7-Lb--|
--------------------------------------------------------------7---------|
--------------------------------------------------------------7---------|
------------------------------------------------------------------------|


  Em                                                          
                                      |--3-|  |--3--| |--3-|  
  S  S S S E   E  Q      S S S S  S S S  S S  S  S  S S  S S  
-------5-------------------5--------5------8b-5h-8p-5------5-|
-----5---8---------------5---8----5---8b-5------------8p-5---|
--Lb-------7~--5--7b~----------7b----------------------------|
-------------------------------------------------------------|
-------------------------------------------------------------|
-------------------------------------------------------------|


       |-3-| |--3--| |-3-|       |-3-| |--3--|    |-3|        |-3-| |-3|   
  S S  S S S S  S  S S S S S  S  S S S S  S  S    E  S E   E  E   S E  S   
---------5-------------------------------------------------5--------5-----|
--8----5---8-------------8----------------------------------------5----8b-|
----7b-------7b-Lb-5---5---7b-Lb-5---5-7b-Lb-Lb-5g7--5--------7b----------|
---------------------7-------------7-------------------7~-----------------|
--------------------------------------------------------------------------|
--------------------------------------------------------------------------|


  S S Q     Q.       E.    E.    E.   E.    
--8-8-Lb----9b------10b---10b---10b---9b---|
-------------------------------------------|
-------------------------------------------|
-------------------------------------------|
-------------------------------------------|
-------------------------------------------|


                                |--3--|         |--3-|        
  S. S.  S. S.  E   S  S   S S  S  S  S S S E   S  S S E  E   
--L--8--10-10b-10b--8--------8----------5--------------8-----|
----------------------10~-10---10p-8s-5---8------------------|
--------------------------------------------7b--Lb-5---------|
-----------------------------------------------------7-------|
-------------------------------------------------------------|
-------------------------------------------------------------|


   TP                                                                           
                  |--3--|   |--|    |---3--|  |---3---|        |---3---|  |--3--
   Q     E   E    S  S  S   S  E    S  S   S  S   S   S  S  S  S   S   S  S  S  
--10----10----------10-13b--L-13~--10----------------------10-------------------
--10----10-------10-------------------13p-10-----------------------------------1
--10----10--12b------------------------------13p-12p-10-------12b-12p-10----10--
--------------------------------------------------------12---------------12-----
--------------------------------------------------------------------------------
--------------------------------------------------------------------------------


                                     |-3-| |--3-| |--3-| |-3-|  |--3--|  
   E   E  E   S S  S S  S T  T   S S S S S S  S S S S  S S S S  S  S  S  
-------5-------------8b-5-7p-5-7g5-----5--------5----------5------------|
--------------5-8b-5---------------8-5---8----5---8---------------------|
----------7b-------------------------------7b-------7b-5-----7b-Lb-Lb-5-|
---------------------------------------------------------7--------------|
--12\-------------------------------------------------------------------|
------------------------------------------------------------------------|


          |--3--|              |--3--|  |--3--|  |----3----|   |---3---|  |---3-
  E   E   S  S  S  Q      E    S  S  S  S  S  S  S  S  T   T   S   S   S  S  S  
---------------12-15b----15~--12------------------------------------------------
------------12-------------------15-12----12------------------------------------
-----14b--L----------------------------15----14-12----12h-14h-15p-14p-12----12h-
---------------------------------------------------14--------------------14-----
--------------------------------------------------------------------------------
--0-----------------------------------------------------------------------------


  E  E  E    E  E  E  E  E  E    E  E  E   
-----5-----7g8--7--------------5g7--5-----|
-----5-----7g8--7--------------5g7--5-----|
-----5-----7g8--7--5-----------5g7--5-----|
----------------------7-----5-------------|
--0----------------------7-------------0--|
--------0---------------------------------|


   TP      TP      TP      TP  TP       
   Q.      Q.      Q.      E   E   E    
--10------12------13------12--10-------|
--10------12------13------12--10-------|
--10------12------13------12--10-------|
----------------------------------12\--|
---------------------------------------|
---------------------------------------|


  E  S S E  E  E    E  E  S S  E  E  E  E   
-----5------5-----7g8--7-------------------|
-----5------5-----7g8--7--5----------------|
------------------7g8--7--5----------------|
--7----7-L------------------7~-L-----5--7--|
---------------0------------------7--------|
-------------------------------------------|


   TP                                                                           
                         |---3--|        |--3--|  |---3--|         |---3--|     
   Q.      S   S  S  S   S  S   S  S  S  S  S  S  S   S  S  S  S   S   S  S     
--10-------------10-----10-----10----10-----------------------------------------
--10----------10----13b----13b----13----13-10-----------------------------------
--10------12b---------------------------------13-12p-10----10-12b-12p-10----10g1
--------------------------------------------------------12---------------12-----
--------------------------------------------------------------------------------
--------------------------------------------------------------------------------


  E  S S E    E   S  S E     S  S  S  S   S  S    E     Q      
-----5------7g8------7-L\---------17-----17-------------------|
-----5------7g8------7-L\------17----20b----20b~--Lb~---------|
------------7g8--(0)-7-L\--/17-------------------------12\----|
-----------------(0)-----------------------------------12\----|
--0----7-L----------------------------------------------------|
--------------------------------------------------------------|


   TP      TP  TP        TP                       
   Q.      E   E   S  S  Q     S  S  E   E   E    
--10------12--10--12-13-12-------10--------------|
--10------12--10--12-13-12-------10--------------|
--10------12--10--12-13-12----12-10--------------|
----------------------------------------10--12\--|
------------------------------------12-----------|
-------------------------------------------------|


  E  S S E  E   E     E  E  S S  E   E  E  E   
-----5------5-------7g8--7--------------------|
-----5------5-------7g8--7--------------------|
-----5------5-------7g8--7--5-----------------|
--7----7-L--------------------7~-L\-----5--7--|
---------------(0)-------------------7--------|
----------------------------------------------|


                                                    |--3--|      
  E  S S  S S  S  S S T  T S  S  S S  S S  S  S S S S  S  S S S  
-----7--------------9-7h-9-7-------7--------------7-----------7-|
------------7-10b-7-9--------10b-7---10-------------------------|
-------9b-L-----------------------------9b-Lb-7-----9b-Lb-7-----|
--9---------------------------------------------9-----------9---|
----------------------------------------------------------------|
----------------------------------------------------------------|


                                           |---3--|                       
  E    S  S  E    S  S  Q       S  S  E    S   S  S     S  S  S  S  S  S  
---------12------12------------12----------------------------------------||
------12----15b-----15--Lb~-------15-------------------------------------||
--9/---------------------------------14b--14p-12----12g14-12-------------||
-------------------------------------------------14----------14-12-------||
-------------------------------------------------------------------12-10-||
-------------------------------------------------------------------------||


   Verse 2                                    
                               |-3-|     
   H.             Q.      E    E   S E   
----------------------------------------|
----------------------------------------|
--------------------------0--5g7p--5----|
-------------------------------------7--|
--12~-------------L\--------------------|
----------------------------------------|


  tr                                         
                         |-3|                
  Q.        Q      E  E  E  S E   E  E   E   
------------5---------7--L------------------|
------------5----7g8--7--L--5---------------|
-----------------7g8--7--L--5---------------|
--5(7)------------------------7~-----5h--7--|
----------------------------------7---------|
--------------------------------------------|


   tr                                               
                               |-3-|                
   Q.          Q        E   E  E   S  E   E  E  E   
--------------10-----------12--L-------------------|
--------------10----12g13--12--L--10---------------|
--------------------12g13--12--L--10---------------|
--10(12)-----------------------------12~-----5--7--|
------------------------------------------7--------|
---------------------------------------------------|


  tr                                       tr                               
  Q.        Q.     E    E   E  E  E  E     H.              Q.     E  E  E   
----------------------------------------|----------------------------------|
------------------------7---------------|----------------------------------|
----------------------7g7p--5-----------|----------------------------------|
--5(7)------7------------------7-----5--|----------------------------5--7--|
----------------------------------7-----|--5(7)------------L------7--------|
----------------------------------------|----------------------------------|


  tr                                          
                         |-3|       |-3|      
  Q.        Q      E  E  E  S E  E  E  S  E   
------------5---------7----------------------||
------------5----7g8--7--5-------------------||
-----------------7g8--7--5-------------5h-7--||
--5(7)----------------------7-L--5--7--------||
---------------------------------------------||
---------------------------------------------||


  Guitar Solo 2                                          
  E   E   S S S E.   S S S  S Q     Q    S S  
---------------------------------------------|
---------------------5-8-Lp-5-8~----L----5-8-|
--Lb--Lb--5---5-7b---------------------------|
------------7--------------------------------|
---------------------------------------------|
---------------------------------------------|


  S S S S  E   S S S E   S E  E   E  S S  S S  E   
----5--------------------------------5------5h-8--|
--5---8------------------5--------5----5h-8-------|
--------7b-Lb--5---5-7b-------7b------------------|
--------------------------------------------------|
-----------------7--------------------------------|
--------------------------------------------------|


  E   Q     S  S S   S  S S   Q.       S Q     S  
--Lb--5~-----------------------------------------|
------------8p-5---------------------------------|
-----------------7br-Lb-5---5g7b~------L-5b----5-|
--------------------------7----------------------|
-------------------------------------------------|
-------------------------------------------------|


  Q     S S S  S  S S S S E  S  S   E  S E  S E   
-------------------------------------------------|
-------------------------------------------------|
--2~----0-----------------------------------5----|
----------2-0h-1p-0-------------------------5-7--|
--------------------3-0-5-3--5p-3-5g7--7-5-------|
-------------------------------------------------|


                       |3|   |3|                  
  S  S S E  S S S  S S S E   S E  E  E  E  E  E   
------------0-L------0-L-------------0-----------|
-------------------------------------------------|
----------------2s-4-----2p--0----------------0--|
--7p-5-------------------------2-----------0-----|
-------7--------------------------------2--------|
---------0------------------------0--------------|


  E  E   E  E  Q     E  E   E  S  E  S  S S   
------------5---------------5-----5-----5----|
------------5--------5--8b--5--8b-5--8b-5-8b-|
---------------7b----------------------------|
-----5h--7-----------------------------------|
--7------------------------------------------|
---------------------------------------------|


  5  5  5  5  5                                             
  S. S. S. S. S. S  S S  S S  S S  S S  S S S S  S S S S S  
--5-----5--8b-5-----5----5----5-8b-5------5-8------5-----5-|
--5--8b-5--------8b-5----5-8b-5------8b-5--------5---5-8---|
----------------------7b----------------------7b-----------|
-----------------------------------------------------------|
-----------------------------------------------------------|
-----------------------------------------------------------|


                                             |--3-|                  
  S  E   S  S  S  S   S  S  S T  T  T  T S S S S  S S S E   E   E    
--8------8----10--Lb--Lb-8----8----------5------------5-----5-------|
----10~----10--------------10---10p-8s-5---8-------------------(0)--|
---------------------------------------------8-7p-5-----7b-----(0)--|
--------------------------------------------------------------------|
----------------------------------------------------7---------------|
--------------------------------------------------------------------|


   TP                                                                        
                                                  |---3---|  |---3--|        
   Q.      S   S  S  S  S  S  S   S  S  S   S  S  S   S   S  S   S  S  S  S  
--10--------------------------------10--------12-10h-12p-10-----10----------|
--10------12s-13-12-10----10-----10----13b-10---------------13b----13-10s-8-|
--10------12s-13-12-10----10-12b--------------------------------------------|
-----------------------12---------------------------------------------------|
----------------------------------------------------------------------------|
----------------------------------------------------------------------------|


   |--3-|  |-3-|  |--3--| |-3-| |--3--|                   |3|        
   S S  S  E   S  S  S  S S S S S  S  S S S E   E  E  S S S E   S S  
-----8---------8----------5---------------------5---------------5-8-|
--10---10~-L~----10p-8s-5---8-------------------5-------5-L-8b------|
------------------------------7-Lb-Lb-5---5-7b----------------------|
----------------------------------------7---------------------------|
--------------------------------------------------------------------|
--------------------------------------------------------------------|


           |-3-| |--3-|       |--3--|     |--3-|  |--3-|      |3|          
  S S  S S S S S S  S S S  S  S  S  S S S S  S S  S S  S S  S S E    E     
--5-8b-5-----5--------5-8-(0)---------------------------------------------|
---------8-5---8----5-----(0)-------------8p-5------8p-5------------------|
-----------------7b-------(0)-7b-7p-5---5------8p-5------7p-5---7b~--Lb~--|
--------------------------------------7-----------------------------------|
--------------------------------------------------------------------------|
--------------------------------------------------------------------------|


  ^                                                                
                                                 |--3-|            
  Q    E    E  E  E  E  E  E     Q     E  E   E  S  S S Q     S S  
-------5--7g8--7--5-----------|--5\----5----------------------5---|
-------5--7g8--7--5-----------|--5\----5------5--8b-5-8-L~------8-|
-------5--7g8--7--5-----------|--5\-------7b----------------------|
------------------------5--6--|--7\-------------------------------|
--0------------------7--------|-----------------------------------|
------------------------------|-----------------------------------|


            |-3-|                             
  S S  S  S S S S E   E   E   S  S S   E   S  
---------------------------------------------|
----------------8----------------------------|
--7-Lb-Lb-5---5---7b--7b--7b--7p-5---5g7p--5-|
------------7----------------------7---------|
---------------------------------------------|
---------------------------------------------|


                      tr                                        
  S  S S S  S  S  S S Q       Q.        Q.      Q.     Q.       
-------------------------------------|------------------------||
-------------------------------------|------------------------||
-------------------------------------|--9\--------------------||
--7p-5-------------------------------|--7\--------------------||
-------7-5h-6p-5s-3------------------|------------------------||
--------------------5-3(5)----L------|------------------------||




Duration Legend
---------------
W - whole
H - half
Q - quarter
E - 8th
S - 16th
T - 32nd
X - 64th
. - note dotted
|-n-|  - n-tuplets


Tablature Legend
----------------
L - tied note
x - dead note
g - grace note
(n) - ghost note
> - accentuded note
h - hammer on
p - pull off
b - bend
S - shift slide
s - legato slide
/ -  slide into from below or out of upwards
\ -  slide into from above or out of downwards
~ - vibrato
W - wide vibrato
tr - trill
TP - tremolo picking
< - fade in
^ - brush up
v - brush down


Get my other tabs for Guitar Pro, Powertab, guitar/bass text and chords at
http://profile.ultimate-guitar.com/TexasFury/contributions/

            
            
Suggest correction
Creating personal tab
Creating personal tab
You can edit any tab online and save it as your Personal.

You can edit, replace or remove any tab part or add personal notes – all changes will be seen only by you.

Personal tabs can be accessed anytime from any device, even offline.
Learn more »
Give kudos to tab author, rate the tab!
1 2 3 4 5
comments
print report bad tab
guest
You may want to rate the tab now too:
select rating
Wanna post a correction for this tab? Suggest correction