Oops, an error
Loading. Please wait.

Lets Have A Party bass

version 1
version 1

Whole song

Interactive

446 views 1 this week
no commentswrite comment
1 2 3 4 5
3 more votes to show rating
add to favorites
×
Save as Personal and add changes to this tab that will be seen only by you. Learn more ›
×
You can save this tab as Personal to edit and correct it or add notes. All changes will be seen only by you. Learn more »
launch autoscroll
font size
0
reset
guitar tuner
edit
Autoscroll
slow
fast
+/-
esc
set tempo
stop
-------------------------------------------------------------------------------
                             LET'S HAVE A PARTY - Chris Duarte Group
-------------------------------------------------------------------------------


Tabbed by: Isaias Garcia (TexasFury)

Tuning: Half-step down


            Intro                                                           
      E     W                   H.           E  E     W                 
F#||-----|-------------------|---------------------|-------------------|
C#||-----|-------------------|---------------------|-------------------|
G#||-----|-------------------|---------------------|-------------------|
D#||--5--|--L----------------|--L------------L--5--|--L----------------|
A#||-----|-------------------|---------------------|-------------------|


  H.           E  E     W                   H.           E  E   
---------------------|-------------------|---------------------|
---------------------|-------------------|---------------------|
---------------------|-------------------|---------------------|
--L------------L--5--|--L----------------|--L---------------5--|
---------------------|-------------------|---------------------|


  |----3----|    |----3----|       |----3----|                
  Q    Q    Q    Q    Q    Q       Q    Q    Q    E  E  Q     
--------------------------------|----------------------------|
--------------------------------|----------------------------|
--------------------------------|-------0----1----2--3--4----|
-------0----1----2----3----4----|----------------------------|
--------------------------------|----------------------------|


  Q    E  E  E  E  E  E     E  E  E  E  E  E  E  E    
-------------------------|---------------------------|
-------------------------|---------------------------|
--5----5--5--5--5--5--5--|--5--5--5--5--5--5--5--5\--|
-------------------------|---------------------------|
-------------------------|---------------------------|


  E  E  E  E  E  E  E  E     E  E  E  E  E  E  E  E   
--------------------------|--------------------------|
--------------------------|--------------------------|
--------------------------|--------------------------|
--5--5--5--5--5--5--5--5--|--5--5--5--5--5--5--5--5--|
--------------------------|--------------------------|


  E  E  E  E  E  E  E  E     E  E  E  E  E  E  E  E   
--------------------------|--------------------------|
--------------------------|--------------------------|
--------------------7--6--|--5--5--5--5--5--5--5-----|
--------------------------|-----------------------0--|
--5--5--5--5--5--5--------|--------------------------|


  E  E  E  E  E  E  E  E     E  E  E  E  E  E  E  E   
--------------------------|--------------------------||
--------------------------|--------------------------||
--------------------------|--------------------------||
--3--5--5--5--3--5--5--5--|--5--5--3-----------------||
--------------------------|-----------5--L--5--5--5--||


  Verse 1                                                   
  E   E  E  E  E  E  E  E     E  E  E  E  E  E  E  E   
---------------------------|--------------------------|
---------------------------|--------------------------|
---------------------------|--------------------------|
--3h--5--5--5--5--5--5--5--|--5--5--5--5--5--5--5--5--|
---------------------------|--------------------------|


  E   E  E  E  E  E  E  E     E   E  E  E  E  E  E  E   
---------------------------|---------------------------|
---------------------------|---------------------------|
---------------------------|---------------------------|
--3h--5--5--5--5--5--5--5--|--3h--5--5--5--5--5--5--5--|
---------------------------|---------------------------|


  E   E  E  E  E  E  E  E     E  E  E  E  E  E  E  E   
---------------------------|--------------------------|
---------------------------|--------------------------|
--3h--5--5--5--5--5--5--5--|--5--5--5--5--5--5--5--5--|
---------------------------|--------------------------|
---------------------------|--------------------------|


  E   E  E  E  E  E  E  E     E  E  E  E  E  E  E  E   
---------------------------|--------------------------|
---------------------------|--------------------------|
---------------------------|--------------------------|
--3h--5--5--5--5--5--5--5--|--5--5--5--5--5--5--5--3--|
---------------------------|--------------------------|


  E  E  E  E  E  E  E  E     E  E  E  E  E  E  E  E   
--------------------------|--------------------------|
--------------------------|--------------------------|
--------------------7--6--|--5--5--5--5--5--5--5-----|
--------------------------|--------------------------|
--5--5--5--5--5--5--------|-----------------------5--|


  E  E  E  E  E  E  E  E     E  E  E  E  E  E  E  E   
--------------------------|--------------------------|
--------------------------|--------------------------|
--------------------------|--------------------------|
--5--5--5--5--5--5--5--5--|--5--5--3-----------------|
--------------------------|-----------5--L--5--5--5--|


  E   E  E  E  E  E  E  E     E  E  E  E  E  E  E  E   
---------------------------|--------------------------|
---------------------------|--------------------------|
---------------------------|--------------------------|
--3h--5--5--5--5--5--5--5--|--5--5--5--5--5--5--5--5--|
---------------------------|--------------------------|


  E   E  E  E  E  E  E  E     E   E  E  E  E   E  E  E   
---------------------------|----------------------------|
---------------------------|----------------------------|
---------------------------|----------------------------|
--3h--5--5--5--5--5--5--5--|--3h--5--5--5--3h--5--5--5--|
---------------------------|----------------------------|


  E   E  E  E  E  E  E  E     E  E  E  E  E  E  E  E   
---------------------------|--------------------------|
---------------------------|--------------------------|
--3h--5--5--5--5--5--5--5--|--5--5--5--5--5--5--5--5--|
---------------------------|--------------------------|
---------------------------|--------------------------|


  E   E  E  E  E  E  E  E     E   E  E  E  E  E  E  E   
---------------------------|---------------------------|
---------------------------|---------------------------|
---------------------------|---------------------------|
--3h--5--5--5--5--5--5--5--|--3h--5--5--5--5--5--5--3--|
---------------------------|---------------------------|


  E  E  E  E  E  E  E  E     E  E  E  E  E  E  E  E    
--------------------------|---------------------------|
--------------------------|---------------------------|
--------------------7--6--|--5--5--5--5--5--5--5--5\--|
--------------------------|---------------------------|
--5--5--5--5--5--5--------|---------------------------|


  E  E  E  E  E  E  E  E     E  E  E  E  E  E  E  E   
--------------------------|--------------------------||
--------------------------|--------------------------||
--------------------------|--------------------------||
--5--5--5--5--5--5--5--5--|--5--5--3-----------------||
--------------------------|-----------5--L--5--5--5--||


  Chorus 1                                                     
  E   E  E  E  E   E  E  E     E   E  E  E  E  E  E  E   
----------------------------|---------------------------|
----------------------------|---------------------------|
----------------------------|---------------------------|
--3h--5--5--5--3h--5--5--5--|--3h--5--5--5--5--5--5--5--|
----------------------------|---------------------------|


  E   E  E  E  E   E  E  E     E   E  E  E  E  E  E  E   
----------------------------|---------------------------|
----------------------------|---------------------------|
----------------------------|---------------------------|
--3h--5--5--5--3h--5--5--5--|--3h--5--5--5--5--5--5--5--|
----------------------------|---------------------------|


  E   E  E  E  E   E  E  E     E   E  E  E  E  E  E  E   
----------------------------|---------------------------|
----------------------------|---------------------------|
--3h--5--5--5--3h--5--5--5--|--3h--5--5--5--5--5--5--5--|
----------------------------|---------------------------|
----------------------------|---------------------------|


  E   E  E  E  E   E  E  E     E   E  E  E  E  E  E  E   
----------------------------|---------------------------|
----------------------------|---------------------------|
----------------------------|---------------------------|
--3h--5--5--5--3h--5--5--5--|--3h--5--5--5--5--5--5--5--|
----------------------------|---------------------------|


  E  E  E  E  E  E  E  E     E  E  E  E  E  E  E  E   
--------------------------|--------------------------|
--------------------------|--------------------------|
--------------------7--6--|--5-----------------------|
--------------------------|-----0--2--2--3--3--4--4--|
--5--5--5--5--5--5--------|--------------------------|


  E  E  E  E  E  E  E  E     E  E  E  E  Q    E  E   
--------------------------|-------------------------||
--------------------------|-------------------------||
--------------------------|-------------------------||
--5--5--5--5--5--5--5--5--|--5--5--3----------------||
--------------------------|-----------5--5----5--5--||


  Guitar Solo                                                    
  E   E  E  E  E  E  E  E     E  E  E  E  E  E  E  E   
---------------------------|--------------------------|
---------------------------|--------------------------|
---------------------------|--------------------------|
--3h--5--5--5--5--5--5--5--|--5--5--5--5--5--5--5--5--|
---------------------------|--------------------------|


  E   E  E  E  E   E  E  E     E  E  E  E  E  E  E  E   
----------------------------|--------------------------|
----------------------------|--------------------------|
----------------------------|--------------------------|
--3h--5--5--5--3h--5--5--5--|--5--5--5--5--5--5--5--5--|
----------------------------|--------------------------|


  E   E  E  E  E  E  E  E     E  E  E  E  E  E  E  E   
---------------------------|--------------------------|
---------------------------|--------------------------|
--3h--5--5--5--5--5--5--5--|--5--5--5--5--5--5--5--5--|
---------------------------|--------------------------|
---------------------------|--------------------------|


  E   E  E  E  E  E  E  E     E   E  E  E  E   E  E  E   
---------------------------|----------------------------|
---------------------------|----------------------------|
---------------------------|----------------------------|
--3h--5--5--5--5--5--5--5--|--3h--5--5--5--3h--5--5--5--|
---------------------------|----------------------------|


  E  E  E  E  E  E  E  E     E  E  E  E  E  E  E  E   
--------------------------|--------------------------|
--------------------------|--------------------------|
--------------------7--6--|--5--5--5--5--5--5--------|
--------------------------|--------------------7--6--|
--5--5--5--5--5--5--------|--------------------------|


  E  E  E  E  E  E  E  E     E  E  E  E  E  E  E  E   
--------------------------|--------------------------|
--------------------------|--------------------------|
--------------------------|--------------------------|
--5--5--5--5--5--5--5--5--|--5--5--3--3--------------|
--------------------------|--------------5--5--5--5--|


  E   E  E  E  E  E  E  E     E   E  E  E  E   E  E  E   
---------------------------|----------------------------|
---------------------------|----------------------------|
---------------------------|----------------------------|
--3h--5--5--5--5--5--5--5--|--3h--5--5--5--3h--5--5--5--|
---------------------------|----------------------------|


  E   E  E  E  E  E  E  E     E   E  E  E  E   E  E  E   
---------------------------|----------------------------|
---------------------------|----------------------------|
---------------------------|----------------------------|
--3h--5--5--5--5--5--5--5--|--3h--5--5--5--3h--5--5--5--|
---------------------------|----------------------------|


  E   E  E  E  E  E  E  E     E   E  E  E  E   E  E  E   
---------------------------|----------------------------|
---------------------------|----------------------------|
--3h--5--5--5--5--5--5--5--|--3h--5--5--5--3h--5--5--5--|
---------------------------|----------------------------|
---------------------------|----------------------------|


  E   E  E  E  E  E  E  E     E   E  E  E  E   E  E  E   
---------------------------|----------------------------|
---------------------------|----------------------------|
---------------------------|----------------------------|
--3h--5--5--5--5--5--5--5--|--3h--5--5--5--3h--5--5--5--|
---------------------------|----------------------------|


  E  E  E  E  E  E  E  E     E  E  E  E  E  E  Q     
--------------------------|-------------------------|
--------------------------|-------------------------|
--------------------7--6--|--5--5--5--5--5--5--5----|
--------------------------|-------------------------|
--5--5--5--5--5--5--------|-------------------------|


  E   E  E  E  E   E  E  E     E   E  E  E  E  E  E  E   
----------------------------|---------------------------|
----------------------------|---------------------------|
----------------------------|---------------------------|
--3h--5--5--5--3h--5--5--5--|--3h--5--5--3--------------|
----------------------------|---------------5--5--5--5--|


  E   E  E  E  E  E  E  E     E   E  E  E  E   E  E  E   
---------------------------|----------------------------|
---------------------------|----------------------------|
---------------------------|----------------------------|
--3h--5--5--5--5--5--5--5--|--3h--5--5--5--3h--5--5--5--|
---------------------------|----------------------------|


  E   E  E  E  E  E  E  E     E  E  E  E  E   E  E  E   
---------------------------|---------------------------|
---------------------------|---------------------------|
---------------------------|---------------------3--3--|
--3h--5--5--5--5--5--5--5--|--5--5--5--5--3h--5--------|
---------------------------|---------------------------|


  E   E  E  E  E  E  E  E     E   E  E  E  E   E  E  E   
---------------------------|----------------------------|
---------------------------|----------------------------|
--3h--5--5--5--5--5--5--5--|--3h--5--5--5--3h--5--5--5--|
---------------------------|----------------------------|
---------------------------|----------------------------|


  E   E  E  E  E  E  E  E     E   E  E  E  E   E  E  E   
---------------------------|----------------------------|
---------------------------|----------------------------|
---------------------------|----------------------------|
--3h--5--5--5--5--5--5--5--|--3h--5--5--5--3h--5--5--5--|
---------------------------|----------------------------|


  E  E  E  E  E  E  E  E     E  E  E  E  E  E  E  E   
--------------------------|--------------------------|
--------------------------|--------------------------|
--------------------7--6--|--5--5--5-----------------|
--------------------------|-----------0--2--0--3--0--|
--5--5--5--5--5--5--------|--------------------------|


  E  E  E  E  E  E  E  E     E  E  E  E  E  E  E  E   
--------------------------|--------------------------||
--------------------------|--------------------------||
--------------------------|--------------------------||
--5--5--5--5--5--5--5--5--|--5--5--3--3--------------||
--------------------------|--------------5--5--5--5--||


  Verse 2                                                   
  E   E  E  E  E  E  E  E     E  E  E  E  E  E  E  E   
---------------------------|--------------------------|
---------------------------|--------------------------|
---------------------------|--------------------------|
--3h--5--5--5--5--5--5--5--|--5--5--5--5--5--5--5--5--|
---------------------------|--------------------------|


  E   E  E  E  E  E  E  E     E   E  E  E  E  E  E  E   
---------------------------|---------------------------|
---------------------------|---------------------------|
---------------------------|---------------------------|
--3h--5--5--5--5--5--5--5--|--3h--5--5--5--5--5--5--5--|
---------------------------|---------------------------|


  E   E  E  E  E  E  E  E     E  E  E  E  E  E  E  E   
---------------------------|--------------------------|
---------------------------|--------------------------|
--3h--5--5--5--5--5--5--5--|--5--5--5--5--5--5--5--5--|
---------------------------|--------------------------|
---------------------------|--------------------------|


  E   E  E  E  E  E  E  E     E   E  E  E  E   E  E  E   
---------------------------|----------------------------|
---------------------------|----------------------------|
---------------------------|----------------------------|
--3h--5--5--5--5--5--5--5--|--3h--5--5--5--3h--5--5--5--|
---------------------------|----------------------------|


  E  E  E  E  E  E  E  E     E  E  E  E  E  E  E  E   
--------------------------|--------------------------|
--------------------------|--------------------------|
--------------------7--6--|--5--5--5--5--5--5--5-----|
--------------------------|--------------------------|
--5--5--5--5--5--5--------|-----------------------5--|


  E  E  E  E  E  E  E  E     E  E  E  E  E  E  E  E   
--------------------------|--------------------------|
--------------------------|--------------------------|
--------------------------|--------------------------|
--5--5--5--5--5--5--5--5--|--5--5--3--3--------------|
--------------------------|--------------5--5--5--5--|


  E   E  E  E  E   E  E  E     E   E  E  E  E  E  E  E   
----------------------------|---------------------------|
----------------------------|---------------------------|
----------------------------|---------------------------|
--3h--5--5--5--3h--5--5--5--|--3h--5--5--5--5--5--5--5--|
----------------------------|---------------------------|


  E   E  E  E  E   E  E  E     E   E  E  E  E  E  E  E   
----------------------------|---------------------------|
----------------------------|---------------------------|
----------------------------|---------------------------|
--3h--5--5--5--3h--5--5--5--|--3h--5--5--5--5--5--5--5--|
----------------------------|---------------------------|


  E   E  E  E  E   E  E  E     E   E  E  E  E  E  E  E   
----------------------------|---------------------------|
----------------------------|---------------------------|
--3h--5--5--5--3h--5--5--5--|--3h--5--5--5--5--5--5--5--|
----------------------------|---------------------------|
----------------------------|---------------------------|


  E   E  E  E  E   E  E  E     E   E  E  E  E  E  E  E   
----------------------------|---------------------------|
----------------------------|---------------------------|
----------------------------|---------------------------|
--3h--5--5--5--3h--5--5--5--|--3h--5--5--5--5--5--5--3--|
----------------------------|---------------------------|


  E  E  E  E  E  E  E  E     E  E  E  E  E  E  E  E   
--------------------------|--------------------------|
--------------------------|--------------------------|
--------------------7--6--|--5--5--5--5--5--5--5--5--|
--------------------------|--------------------------|
--5--5--5--5--5--5--------|--------------------------|


  E  E  E  E  E  E  E  E     E  E  E  E  E  E  E  E   
--------------------------|--------------------------||
--------------------------|--------------------------||
--------------------------|--------------------------||
--5--5--5--5--5--5--5--5--|--5--5--5--3--------------||
--------------------------|--------------5--5--5--5--||


  Chorus 2                                                     
  E   E  E  E  E   E  E  E     E   E  E  E  E  E  E  E   
----------------------------|---------------------------|
----------------------------|---------------------------|
----------------------------|---------------------------|
--3h--5--5--5--3h--5--5--5--|--3h--5--5--5--5--5--5--5--|
----------------------------|---------------------------|


  E   E  E  E  E   E  E  E     E   E  E  E  E  E  E  E   
----------------------------|---------------------------|
----------------------------|---------------------------|
----------------------------|---------------------------|
--3h--5--5--5--3h--5--5--5--|--3h--5--5--5--5--5--5--5--|
----------------------------|---------------------------|


  E   E  E  E  E   E  E  E     E   E  E  E  E  E  E  E   
----------------------------|---------------------------|
----------------------------|---------------------------|
--3h--5--5--5--3h--5--5--5--|--3h--5--5--5--5--5--5--5--|
----------------------------|---------------------------|
----------------------------|---------------------------|


  E   E  E  E  E   E  E  E     E   E  E  E  E  E  E  E   
----------------------------|---------------------------|
----------------------------|---------------------------|
----------------------------|---------------------------|
--3h--5--5--5--3h--5--5--5--|--3h--5--5--5--5--5--5--3--|
----------------------------|---------------------------|


  E  E  E  E  E  E  E  E     E  E  E  E  E  E  E  E   
--------------------------|--------------------------|
--------------------------|--------------------------|
--------------7--7--7--6--|--5--5--5--5--5--5--5--5--|
--------------------------|--------------------------|
--5--5--5--5--------------|--------------------------|


  E   E  E  E  E   E  E  E     E   E  E  E  E  E  E  E   
----------------------------|---------------------------||
----------------------------|---------------------------||
----------------------------|---------------------------||
--3h--5--5--5--3h--5--5--5--|--3h--5--5--3--------------||
----------------------------|---------------5--5--5--5--||


  Outro                                                      
  E   E  E  E  E   E  E  E     E   E  E  E  E  E  E  E   
----------------------------|---------------------------|
----------------------------|---------------------------|
----------------------------|---------------------------|
--3h--5--5--5--3h--5--5--5--|--3h--5--5--5--5--5--5--5--|
----------------------------|---------------------------|


  E   E  E  E  E   E  E  E     E   E  E  E  E  E  E  E   
----------------------------|---------------------------|
----------------------------|---------------------------|
----------------------------|---------------------------|
--3h--5--5--5--3h--5--5--5--|--3h--5--5--5--5--5--5--5--|
----------------------------|---------------------------|


  E  E  E  E  E  E  E  E     E   E  E  E  E   E  E  E   
--------------------------|----------------------------|
--------------------------|----------------------------|
--5--5--5--5--5--5--5--5--|--3h--5--5--5--3h--5--5--5--|
--------------------------|----------------------------|
--------------------------|----------------------------|


  E   E  E  E  E   E  E  E     E   E  E  E  E  E  E  E   
----------------------------|---------------------------|
----------------------------|---------------------------|
----------------------------|---------------------------|
--3h--5--5--5--3h--5--5--5--|--3h--5--5--5--5--5--5--5--|
----------------------------|---------------------------|


  E  E  E  E  E  E  E  E     E  E  E  E  E  E  E  E   
--------------------------|--------------------------|
--------------------------|--------------------------|
--------------------7--6--|--5--5--5--5--5--5--5--5--|
--------------------------|--------------------------|
--5--5--5--5--5--5--------|--------------------------|


  |----3----|    |----3----|       |----3----|    |-----3-----|     
  Q    Q    Q    Q    Q    Q       Q    Q    Q    Q     Q     Q     
--------------------------------|----------------------------------|
--------------------------------|----------------------------------|
--------------------------------|----------------------------------|
--------------------------------|----------------------------------|
-------3----4----5----6----7----|-------7----8----9----10----11----|


  |-----3-----|     |-----3-----|                                       
  Q     Q     Q     Q     Q     Q        H            W                 
-------------------------------------|-------------|-------------------|
-------------------------------------|-------------|-------------------|
-------------------------------------|-------------|-------------------|
-------------------------------------|-------------|--5----------------|
-------11----12----13----14----15----|--15\--------|-------------------|


  W                   H        Q     Q      
-------------------|----------------------||
-------------------|----------------------||
-------------------|----------------------||
--L----------------|--L--------5\---------||
-------------------|----------------------||



Duration Legend
---------------
W - whole
H - half
Q - quarter
E - 8th
. - note dotted
|-n-|  - n-tuplets

Tablature Legend
----------------
L - tied note
g - grace note
h - hammer on
p - pull off
\ -  slide into from above or out of downwards


Get my other tabs for Guitar Pro, Powertab, guitar/bass text and chords at
http://profile.ultimate-guitar.com/TexasFury/contributions/

            
            
Suggest correction
Creating personal tab
Creating personal tab
You can edit any tab online and save it as your Personal.

You can edit, replace or remove any tab part or add personal notes – all changes will be seen only by you.

Personal tabs can be accessed anytime from any device, even offline.
Learn more »
Give kudos to tab author, rate the tab!
1 2 3 4 5
comments
print report bad tab
guest
You may want to rate the tab now too:
select rating
Wanna post a correction for this tab? Suggest correction