Oops, an error
Loading. Please wait.

What Can I Do bass

version 1
version 1

Whole song

Interactive

42 views 1 this week
no commentswrite comment
1 2 3 4 5
3 more votes to show rating
add to favorites
×
Save as Personal and add changes to this tab that will be seen only by you. Learn more ›
×
You can save this tab as Personal to edit and correct it or add notes. All changes will be seen only by you. Learn more »
launch autoscroll
font size
0
reset
guitar tuner
edit
Autoscroll
slow
fast
+/-
esc
set tempo
stop
-------------------------------------------------------------------------------
                             WHAT CAN I DO - Chris Duarte Group
-------------------------------------------------------------------------------


Tabbed by: Isaias Garcia (TexasFury)

Tuning: Half-step down



      Intro - m.4                  Verse 1                       
      Q    E  E  E  E  E    E      E  E  E  E  E  E  E  E   
F#||---------------------------||--------------------------|
C#||---------------------------||--------------2--2--4--2--|
G#||--0----8--7--L--7----------||--0--0--4--4--------------|
D#||-------------------0--3g4--||--------------------------|


  E  E  E  E  E  E  E  E     Q    E  E  E  E  E  E   
--------------------------|-------------------------|
--------------2--2--4--5--|-------------2--2--4--2--|
--0--0--4--4--------------|--0----4--4--------------|
--------------------------|-------------------------|


  E  E  E  E  E  E    E  E     Q    E  E  E  E  E  E   
----------------------------|-------------------------|
--------------2--2-------2--|-------------2--2-----2--|
--0--0--4--4--------2g4-----|--0----4--4--------4-----|
----------------------------|-------------------------|


  Q    E  E  E  E  E  E     Q    E  E  E  E  E  E     Q    E  E  E  E  E  E   
-------------------------|-------------------------|-------------------------|
-------------2--2--4--2--|-------------2--2--4--2--|-------------2--2--------|
--0----4--4--------------|--0----4--4--------------|--0----4--4--------0--0--|
-------------------------|-------------------------|-------------------------|


  Q    E  E  Q    E  E     Q    E  E  Q    E  E     Q    E  E  E  E  E  E   
------------------------|------------------------|-------------------------|
------------------------|------------------------|-------------2--2--4--2--|
--5----5--0--3----2--3--|--5----5--0--3----5--3--|--0----4--0--------------|
------------------------|------------------------|-------------------------|


                   |--3--|                                                     
  Q    E  E  E  E  E  E  E     Q    E  E  Q    E  E     Q    E  E  Q    E  E   
----------------------------|------------------------|------------------------|
-------------2--2--5--4--2--|------------------------|------------------------|
--0----4--4-----------------|-------------2----4--0--|--5----5--0--3----5--3--|
----------------------------|--0----4--4-------------|------------------------|


       3   |3|       |--3--|          |---3---|              
  Q    E.  S E  Q    E  E  E     Q    E    E  E  Q    E  E   
------------------------------|-----------------------------||
-----------2------------------|---------------4-------------||
--0----4-----4--5-------------|--0----L--4g5-----7----------||
---------------------2--3--4--|-----------------------0--0--||


  Verse 2                                                  
  E  E  E  E  E  E  E  E     E  E  E  E  E  E  E  E   
--------------------------|--------------------------|
--------------2--2--4--2--|--------------2--2--4--5--|
--0--0--4--4--------------|--0--0--4--4--------------|
--------------------------|--------------------------|


  E  E  E  E  E  E  E  E     Q    E  E  E  E    E  E   
--------------------------|---------------------------|
--------------2--2--4--2--|-------------2--2-------2--|
--0--0--4--4--------------|--0----4--4--------2g4-----|
--------------------------|---------------------------|


  Q    E  E  E  E  E  E     Q    E  E  E  E  E  E     E  E  E  E  E  E  E  E   
-------------------------|-------------------------|--------------------------|
-------------2--2--4--2--|-------------2--2--4--2--|--------------2--2--4--2--|
--0----4--4--------------|--0----4--4--------------|--0--0--4--4--------------|
-------------------------|-------------------------|--------------------------|


       |--3--|        |--3--|                            
  Q    E  E  E  E  E  E  E  E     Q    E  E  Q    E  E   
-------------------------------|------------------------|
-------4--5-----4--4-----------|------------------------|
--0----------0--------7--0--0--|--5----5--0--3----2--3--|
-------------------------------|------------------------|


  E  E  E  E  E  E  E  E     Q    E  E  Q    E  E   
--------------------------|------------------------|
--------------------------|-------------2----4--2--|
--5--5--5--0--3--3--------|--0----4--4-------------|
--------------------2--3--|------------------------|


                   |--3--|                      |--3--|   
  Q    E  E  E  E  E  E  E     E  E  E  E  Q    E  E  E   
----------------------------|----------------------------|
-------------2--2-----2-----|----------------------------|
--0----4--4--------4-----4--|--------------2----4--0--4--|
----------------------------|--0--0--4--4----------------|


                               |--3--|  |--3--|  |--3--|   
  Q    E  E  Q    Q       Q    E  E  E  E  E  E  E  E  E   
-----------------------|----------------------------------|
-----------------------|----------2--------4--------------|
--5--------------------|--0----4-----4--5-----5--3--3--5--|
-------2--0--3----4----|----------------------------------|


                                    Guitar Solo                        
       |---3---|       |--3--|                              
  Q    E    E  E  Q    E  E  E      E  E  E  E  E  E  E  E   
--------------------------------||--------------------------|
---------------4----------------||--------------------------|
--0----L--4g5-----7----L--------||--------------------------|
--------------------------0--3--||--5--5--3--3--2--2--0--0--|


                                              |--3--|   
  E  E  E  E  E  E  E  E     Q    E  E  E  E  E  E  E   
--------------------------|----------------------------|
--------------------------|----------------------------|
--------------------------|----------------------------|
--5--5--3--3--2--2--0--0--|--5----3--3--2--2--0--0--0--|


       |--3--|       |--3--|                     |--3--|   
  Q    E  E  E  Q    E  E  E     Q    E  E  Q    E  E  E   
------------------------------|---------------------------|
------------------------------|---------------------------|
---------------------3--0--4--|--5----5--0--3----3--3--0--|
--5----L--2--3--5-------------|---------------------------|


                  |--3--|                           
  Q    E  E  Q    E  E  E     Q    E  E  Q    Q     
---------------------------|-----------------------|
---------------------------|-----------------------|
--5----5--0--3----3--------|-----------------------|
---------------------2--3--|--5----3--3--2----0----|


       |--3--|  |---3---|  |--3--|                      |--3--|   
  Q    E  E  E  E    E  E  E  E  E      Q    E  E  Q    E  E  E   
-------------------------------------|---------------------------|
------------------------2------------|---------------------------|
----------------0--2g4-----4--2------|-------------2----4--0--4--|
--5----L--2--3-------------------3b--|--0----4--4----------------|


                               |--3--|  |--3--|  |--3--|   
  Q    E  E  Q    Q       Q    E  E  E  E  E  E  E  E  E   
-----------------------|----------------------------------|
-----------------------|----------2--------4--------------|
--5--------------------|--0----4-----4--5-----5--3--5--3--|
-------2--0--3----4----|----------------------------------|


                                   GS2                       
       |---3---|  |--3--|                                    
  Q    E  E    E  E  E  E  Q       E   E  E  E  E  E  E  E   
--------------------------------|---------------------------|
--------------------------------|---------------------------|
--0----0--4--7g8--7--7--7--7----|---------------------------|
--------------------------------|--5---5--3--3--2--2--0--0--|


  E  E  E  E  E  E  E  E     E  E  E  E  E  E  E  E   
--------------------------|--------------------------|
--------------------------|--------------------------|
--------------------------|--------------------------|
--5--5--3--3--2--2--0--0--|--5--5--3--3--2--2--0--0--|


        |--3--|        |--3--|                            
  E  E  E  E  E  E  E  E  E  E     Q    E  E  Q    E  E   
--------------------------------|------------------------|
--------------------------------|------------------------|
-----------------------3--0--4--|--5----5--0--3----3--0--|
--5--5--5--2--3--5--5-----------|------------------------|


       |--3--|       |--3--|                             
  Q    E  E  E  Q    E  E  E     E  E  E  E  Q    E  E   
------------------------------|-------------------------|
------------------------------|-------------------------|
--5----5--0--5--3----5--0--3--|-------------------------|
------------------------------|--5--5--3--3--2----0--0--|


       |--3--|  |---3---|  |---3---|                    |--3--|   
  Q    E  E  E  E    E  E  E  E  S S    Q    E  E  Q    E  E  E   
-------------------------------------|---------------------------|
------------------------2------------|---------------------------|
----------------0--2g4-----4--2------|-------------2----4--0--4--|
--5----5--2--3-------------------4-2-|--0----4--4----------------|


                                |--3--|  |--3--|  |--3--|   
  Q    E  E  Q    E  E     Q    E  E  E  E  E  E  E  E  E   
------------------------|----------------------------------|
------------------------|----------2--------4--------------|
--5---------------------|--0----4-----4--5-----5--3--5--3--|
-------2--0--3----4--4--|----------------------------------|


                                 Verse 3                       
       |---3---|                                         
  Q    E    E  E  Q    E  E      E  E  E  E  E  E  E  E   
-----------------------------||--------------------------|
---------------4-------------||--------------2--2--4--2--|
--0----L--4g5-----7----------||--0--0--4--4--------------|
-----------------------0--0--||--------------------------|


  Q    E  E  E  E  E  E     Q    E  E  E  E  E  E   
----------------------2--|-------------------------|
-------------2--2--4-----|-------------2--2--4--2--|
--0----4--4--------------|--0----4--4--------------|
-------------------------|-------------------------|


              |--3--|  |---3--|                              
  E  E  E  E  E  E  E  E   E  E      Q    E  E  E  E  E  E   
----------------------------------|-------------------------|
--------------2--4--2--4b--2------|-------------2--2--4--2--|
--0--0--4--4------------------3b--|--0----4--4--------------|
----------------------------------|-------------------------|


  Q    E  E  E  E  E  E     Q    E  E  E  E  E  E     Q    E  E  E  E  E  E   
-------------------------|-------------------------|-------------------------|
-------------2--2-----2--|-------------2--2--4--2--|-------------------------|
--0----4--4--------4-----|--0----4--4--------------|--0----3--4--0--0--0--0--|
-------------------------|-------------------------|-------------------------|


  Q    E  E  Q    E  E     Q    E  E  Q    E  E     Q    E  E  E  E  E  E   
------------------------|------------------------|-------------------------|
------------------------|------------------------|-------------2--2--4--2--|
--5----5--0--3----3--0--|--5----5--0--3----------|--0----4--4--------------|
------------------------|------------------2--3--|-------------------------|


                   |--3--|                     |--3--|   
  Q    E  E  E  E  E  E  E     Q    E  E  Q    E  E  E   
----------------------------|---------------------------|
-------------2--2-----2-----|---------------------------|
--0----4--4--------4-----4--|-------------2----4--0--4--|
----------------------------|--0----4--4----------------|


                  |--3--|          |--3--|  |--3--|  |--3--|   
  Q    E  E  Q    E  E  E     Q    E  E  E  E  E  E  E  E  E   
---------------------------|----------------------------------|
---------------------------|----------2--------4--------------|
--5------------------------|--0----4-----4--5-----5--3--3--3--|
-------2--0--3----4--4--4--|----------------------------------|


                                  Outro                           
       |--3--|       |--3--|                       |--3--|   
  Q    E  E  E  Q    E  E  E      E  E  E  E  E  E  E  E  E   
------------------------------||-----------------------------|
----------5--4----------------||--------------2--2-----------|
----------------7----L--------||--0--0--4--4--------3--0-----|
--5----5----------------0--3--||--------------------------3--|


          |--3--|       |--3--|                         |--3--|   
  E  E    E  E  E  Q    E  E  E     E  E  E  E  E  E    E  E  E   
---------------------------------|-------------------------------|
-------------5--4----------------|--------------2--2-------------|
--0--0--3g4--------7----L--------|--0--0--4--4--------3g4--0-----|
---------------------------0--3--|----------------------------3--|


  |--3--|  |--3--|       |--3--|                      |--3--|   
  E  E  E  E  E  E  Q    E  E  E     Q    E  E  E  E  E  E  E   
----------------------------------|----------------------------|
----------------------------------|----------------------------|
--0--0--0--0--0--0--0----0--0--0--|--5----------------0--0--3--|
----------------------------------|-------2--0--5--5-----------|


        |--3--|       |--3--|                       |--3--|   
  E  E  E  E  E  Q    E  E  E     E  E  E  E  E  E  E  E  E   
-------------------------------|-----------------------------|
--------------4----------------|--------------2--2--2--------|
--5--5--5--5-------------------|--0--0--4--4-----------------|
-----------------0----L--0--3--|-----------------------5--3--|


              |--3--|  |--3--|                      |--3--|   
  E  E  E  E  E  E  E  E  E  E     Q    E  E  E  E  E  E  E   
--------------------------------|----------------------------|
--------------2--4--2--4--2--2--|----------------------------|
--0--0--4--4--------------------|-------------2--2--4--0--4--|
--------------------------------|--0----4--4-----------------|


  |--3--|                     |--3--|  |--3--|  |--3--|  |--3--|   
  E  E  E  E  E  Q    Q       E  E  E  E  E  E  E  E  E  E  E  E   
---------------------------|--------------------------------------|
---------------------------|--------------------------------------|
--5--5--5------------------|-----------4--4--4--5--5--5--6--6--6--|
-----------2--0--3----4----|--5--5--5-----------------------------|


  |--3--|                                                                   
  E  E  E  E  E  Q    Q       H.              H.              H.            
---------------------------|---------------|---------------|---------------|
--7--7--7--6--7------------|---------------|---------------|---------------|
----------------------0----|--L------------|--L------------|--L------------|
---------------------------|---------------|---------------|---------------|


  Q    H          
----------------||
----------------||
--0-------------||
----------------||



Duration Legend
---------------
W - whole
H - half
Q - quarter
E - 8th
S - 16th
. - note dotted
|-n-|  - n-tuplets


Tablature Legend
----------------
L - tied note
g - grace note
h - hammer on
p - pull off
b - bend


Get my other tabs for Guitar Pro, Powertab, guitar/bass text and chords at
http://profile.ultimate-guitar.com/TexasFury/contributions/

            
            
Suggest correction
Creating personal tab
Creating personal tab
You can edit any tab online and save it as your Personal.

You can edit, replace or remove any tab part or add personal notes – all changes will be seen only by you.

Personal tabs can be accessed anytime from any device, even offline.
Learn more »
Give kudos to tab author, rate the tab!
1 2 3 4 5
comments
print report bad tab
guest
You may want to rate the tab now too:
select rating
Wanna post a correction for this tab? Suggest correction