Oops, an error
Loading. Please wait.

Home tab

103 views 1 this week
no commentswrite comment
1 2 3 4 5
3 more votes to show rating
add to favorites
×
Save as Personal and add changes to this tab that will be seen only by you. Learn more ›
×
You can save this tab as Personal to edit and correct it or add notes. All changes will be seen only by you. Learn more »
launch autoscroll
font size
0
reset
how to read this tab
guitar tuner
edit
Autoscroll
slow
fast
+/-
esc
set tempo
stop
Home
From the Album Slackness


[Intro]

   G             D7              C     D7 F# G
   u d u  u d u   u d u  u d u   u d u  u  d
e|-3-x-3--3-x-3-|-5-x-5--5-x-5-|-3-x-3--5--2/3-|
B|-3-x-3--3-x-3-|-7-x-7--7-x-7-|-5-x-5--7--2/3-|
G|-4-x-4--4-x-4-|-5-x-5--5-x-5-|-5-x-5--5--3/4-|
D|-5-x-5--5-x-5-|-7-x-7--7-x-7-|-5-x-5--7--4/5-|
A|--------------|--------------|-----------4/5-|
E|--------------|--------------|-----------2/3-|

   G             D7              B C             F# G
   u d u  u d u   u d u  u d u   d u d u  u d u   d u d u  u d u   u d u  u d u
e|-3-x-3--3-x-3-|-5-x-5--5-x-5-|-2/3-x-3--3-x-3-|-2/3-x-3--3-x-3-|-3-x-3--3-x-3-|
B|-3-x-3--3-x-3-|-7-x-7--7-x-7-|-4/5-x-5--5-x-5-|-2/3-x-3--3-x-3-|-3-x-3--3-x-3-|
G|-4-x-4--4-x-4-|-5-x-5--5-x-5-|-4/5-x-5--5-x-5-|-3/4-x-4--4-x-4-|-4-x-4--4-x-4-|
D|-5-x-5--5-x-5-|-7-x-7--7-x-7-|-4/5-x-5--5-x-5-|-4/5-x-5--5-x-5-|-5-x-5--5-x-5-|
A|--------------|--------------|----------------|-4/5------------|--------------|
E|--------------|--------------|----------------|-2/3------------|--------------|


[Verse 1]

   G             D7              C              G
   u d u  u d u   u d u  u d u   u d u  u d u   u d u  u d u   
e|-3-x-3--3-x-3-|-5-x-5--5-x-5-|-3-x-3--3-x-3-|-3-x-3--3-x-3-|
B|-3-x-3--3-x-3-|-7-x-7--7-x-7-|-5-x-5--5-x-5-|-3-x-3--3-x-3-|
G|-4-x-4--4-x-4-|-5-x-5--5-x-5-|-5-x-5--5-x-5-|-4-x-4--4-x-4-|
D|-5-x-5--5-x-5-|-7-x-7--7-x-7-|-5-x-5--5-x-5-|-5-x-5--5-x-5-|
A|--------------|--------------|--------------|--------------|
E|--------------|--------------|--------------|--------------|

      G                       D7               C                             G
I've raised the dust on ten thousand streets, worshipped the earth with the soles of my feet
      G                     D7               C                        G
I've roamed around all the days of my life, headed for someone, somewhere to arrive


[Chorus 1]

   G             D7              C              G
   u d u  u d u   u d u  u d u   u d u  u d u   u d u  u d u   
e|-3-x-3--3-x-3-|-5-x-5--5-x-5-|-3-x-3--3-x-3-|-3-x-3--3-x-3-|
B|-3-x-3--3-x-3-|-7-x-7--7-x-7-|-5-x-5--5-x-5-|-3-x-3--3-x-3-|
G|-4-x-4--4-x-4-|-5-x-5--5-x-5-|-5-x-5--5-x-5-|-4-x-4--4-x-4-|
D|-5-x-5--5-x-5-|-7-x-7--7-x-7-|-5-x-5--5-x-5-|-5-x-5--5-x-5-|
A|--------------|--------------|--------------|--------------|
E|--------------|--------------|--------------|--------------|

G             D7   C             G
I want to go home, I want to go home,


   G             D7              C             F# G  C#7 D7 
   u d u  u d u   u d u  u d u   u d u  u d u   d   u  d   u  
e|-3-x-3--3-x-3-|-5-x-5--5-x-5-|-3-x-3--3-x-3-|-2/3-3--4/5-5-|
B|-3-x-3--3-x-3-|-7-x-7--7-x-7-|-5-x-5--5-x-5-|-2/3-3--6/7-7-|
G|-4-x-4--4-x-4-|-5-x-5--5-x-5-|-5-x-5--5-x-5-|-3/4-4--4/5-5-|
D|-5-x-5--5-x-5-|-7-x-7--7-x-7-|-5-x-5--5-x-5-|-4/5-5--6/7-7-|
A|--------------|--------------|--------------|-4/5-5--4/5-5-|
E|--------------|--------------|--------------|-2/3-3--------|

G             D7        C             F# G  C#7 D7 
I want to go home, but home has gone away


[VERSE 2 - SAME PATTERN AS VERSE 1]

 G                         D7              C                    G
Young head foolish, young heart unwise, I left my home for the world outside
 G               D7           C              G
Much too late I realized, my home was always in your eyes


[Chorus 2]

   G             D7              B C              G
   u d u  u d u   u d u  u d u   d u d u  u d u   u d u  u d u   
e|-3-x-3--3-x-3-|-5-x-5--5-x-5-|-2/3-x-3--3-x-3-|-3-x-3--3-x-3-|
B|-3-x-3--3-x-3-|-7-x-7--7-x-7-|-4/5-x-5--5-x-5-|-3-x-3--3-x-3-|
G|-4-x-4--4-x-4-|-5-x-5--5-x-5-|-4/5-x-5--5-x-5-|-4-x-4--4-x-4-|
D|-5-x-5--5-x-5-|-7-x-7--7-x-7-|-4/5-x-5--5-x-5-|-5-x-5--5-x-5-|
A|--------------|--------------|----------------|--------------|
E|--------------|--------------|----------------|--------------|

G             D7   B C             G
I want to go home,   I want to go home,


   G             D7              C             F# G  C#7 D7 
   u d u  u d u   u d u  u d u   u d u  u d u   d   u  d   u  
e|-3-x-3--3-x-3-|-5-x-5--5-x-5-|-3-x-3--3-x-3-|-2/3-3--4/5-5-|
B|-3-x-3--3-x-3-|-7-x-7--7-x-7-|-5-x-5--5-x-5-|-2/3-3--6/7-7-|
G|-4-x-4--4-x-4-|-5-x-5--5-x-5-|-5-x-5--5-x-5-|-3/4-4--4/5-5-|
D|-5-x-5--5-x-5-|-7-x-7--7-x-7-|-5-x-5--5-x-5-|-4/5-5--6/7-7-|
A|--------------|--------------|--------------|-4/5-5--4/5-5-|
E|--------------|--------------|--------------|-2/3-3--------|

G             D7        C             F# G  C#7 D7 
I want to go home, but home has gone away


[Verse 3]

     G                        D7                    C                         G
I'm here one minute then the next I'm gone, when I get that feeling then I'm moving on
                      D7                   C                   G
don't feel much like hangin' around, cos what I'm looking for, I ain't found


[Chorus 3]

   G             D7              B C              G
   u d u  u d u   u d u  u d u   d u d u  u d u   u d u  u d u   
e|-3-x-3--3-x-3-|-5-x-5--5-x-5-|-2/3-x-3--3-x-3-|-3-x-3--3-x-3-|
B|-3-x-3--3-x-3-|-7-x-7--7-x-7-|-4/5-x-5--5-x-5-|-3-x-3--3-x-3-|
G|-4-x-4--4-x-4-|-5-x-5--5-x-5-|-4/5-x-5--5-x-5-|-4-x-4--4-x-4-|
D|-5-x-5--5-x-5-|-7-x-7--7-x-7-|-4/5-x-5--5-x-5-|-5-x-5--5-x-5-|
A|--------------|--------------|----------------|--------------|
E|--------------|--------------|----------------|--------------|

G             D7   B C             G
I want to go home,   I want to go home,


  F# G             D7              C             F# G  C#7 D7  F# G
   d u d u  u d u   u d u  u d u   u d u  u d u   d   u  d   u  d   u
e|-2/3-x-3--3-x-3-|-5-x-5--5-x-5-|-3-x-3--3-x-3-|-2/3-3--4/5-5--2/3-3-|
B|-2/3-x-3--3-x-3-|-7-x-7--7-x-7-|-5-x-5--5-x-5-|-2/3-3--6/7-7--2/3-3-|
G|-3/4-x-4--4-x-4-|-5-x-5--5-x-5-|-5-x-5--5-x-5-|-3/4-4--4/5-5--3/4-4-|
D|-4/5-x-5--5-x-5-|-7-x-7--7-x-7-|-5-x-5--5-x-5-|-4/5-5--6/7-7--4/5-5-|
A|----------------|--------------|--------------|-4/5-5--4/5-5--4/5-5-|
E|----------------|--------------|--------------|-2/3-3---------2/3-3-|

F# G             D7        C             F# G  C#7 D7  F# G
   I want to go home, but home has gone away


[Interlude]

   G             D7              C             F# G  C#7 D7  F# G
   u d u  u d u   u d u  u d u   u d u  u d u   d   u  d   u  d   u
e|-3-x-3--3-x-3-|-5-x-5--5-5-5-|-3-x-3--3-x-3-|-2/3-3--4/5-5--2/3-3-|
B|-3-x-3--3-x-3-|-7-x-7--7-7-7-|-5-x-5--5-x-5-|-2/3-3--6/7-7--2/3-3-|
G|-4-x-4--4-x-4-|-5-x-5--5-5-5-|-5-x-5--5-x-5-|-3/4-4--4/5-5--3/4-4-|
D|-5-x-5--5-x-5-|-7-x-7--7-7-7-|-5-x-5--5-x-5-|-4/5-5--6/7-7--4/5-5-|
A|--------------|--------------|--------------|-4/5-5--4/5-5--4/5-5-|
E|--------------|--------------|--------------|-2/3-3---------2/3-3-|

   G             D7              C             F# G
   u d u  u d u   u d u  u d u   u d u  u d u   d u d u  u d u   u d u  u d u  
e|-3-x-3--3-x-3-|-5-x-5--5-x-5-|-3-x-3--3-x-3-|-2/3-x-3--3-x-3-|-3-x-3--3-x-3-|
B|-3-x-3--3-x-3-|-7-x-7--7-x-7-|-5-x-5--5-x-5-|-2/3-x-3--3-x-3-|-3-x-3--3-x-3-|
G|-4-x-4--4-x-4-|-5-x-5--5-x-5-|-5-x-5--5-x-5-|-3/4-x-4--4-x-4-|-4-x-4--4-x-4-|
D|-5-x-5--5-x-5-|-7-x-7--7-x-7-|-5-x-5--5-x-5-|-4/5-x-5--5-x-5-|-5-x-5--5-x-5-|
A|--------------|--------------|--------------|-4/5------------|--------------|
E|--------------|--------------|--------------|-2/3------------|--------------|


[Verse 4]

 G                 D7                 C                       G
Country lanes and city lights, they smell so sweet and they shine so bright
                         D7               C               G
there's so much in this world to see, and every place is calling me, but


[Outro]

   G             D7              C              G
   u d u  u d u   u d u  u d u   u d u  u d u   u d u  u d u   
e|-3-x-3--3-x-3-|-5-x-5--5-x-5-|-3-x-3--3-x-3-|-3-x-3--3-x-3-|
B|-3-x-3--3-x-3-|-7-x-7--7-x-7-|-5-x-5--5-x-5-|-3-x-3--3-x-3-|
G|-4-x-4--4-x-4-|-5-x-5--5-x-5-|-5-x-5--5-x-5-|-4-x-4--4-x-4-|
D|-5-x-5--5-x-5-|-7-x-7--7-x-7-|-5-x-5--5-x-5-|-5-x-5--5-x-5-|
A|--------------|--------------|--------------|--------------|
E|--------------|--------------|--------------|--------------|

G             D7   C             G
I want to go home, I want to go home,


   G             D7              C             F# G  C#7 D7  F# G
   u d u  u d u   u d u  u d u   u d u  u d u   d   u  d   u  d   u
e|-3-x-3--3-x-3-|-5-x-5--5-x-5-|-3-x-3--3-x-3-|-2/3-3--4/5-5--2/3-3-|
B|-3-x-3--3-x-3-|-7-x-7--7-x-7-|-5-x-5--5-x-5-|-2/3-3--6/7-7--2/3-3-|
G|-4-x-4--4-x-4-|-5-x-5--5-x-5-|-5-x-5--5-x-5-|-3/4-4--4/5-5--3/4-4-|
D|-5-x-5--5-x-5-|-7-x-7--7-x-7-|-5-x-5--5-x-5-|-4/5-5--6/7-7--4/5-5-|
A|--------------|--------------|--------------|-4/5-5--4/5-5--4/5-5-|
E|--------------|--------------|--------------|-2/3-3---------2/3-3-|

G             D7        C              F# G  C#7 D7  F# G
I want to go home, but home has gone away


   G             D7              B C              G
   u d u  u d u   u d u  u d u   d u d u  u d u   u d u  u d u   
e|-3-x-3--3-x-3-|-5-x-5--5-x-5-|-2/3-x-3--3-x-3-|-3-x-3--3-x-3-|
B|-3-x-3--3-x-3-|-7-x-7--7-x-7-|-4/5-x-5--5-x-5-|-3-x-3--3-x-3-|
G|-4-x-4--4-x-4-|-5-x-5--5-x-5-|-4/5-x-5--5-x-5-|-4-x-4--4-x-4-|
D|-5-x-5--5-x-5-|-7-x-7--7-x-7-|-4/5-x-5--5-x-5-|-5-x-5--5-x-5-|
A|--------------|--------------|----------------|--------------|
E|--------------|--------------|----------------|--------------|

G             D7   B C             G
I want to go home,   I want to go home,


  F# G             D7              C             F# G  C#7 D7  F# G
   d u d u  u d u   u d u  u d u   u d u  u d u   d   u  d   u  d   u
e|-2/3-x-3--3-x-3-|-5-x-5--5-x-5-|-3-x-3--3-x-3-|-2/3-3--4/5-5--2/3-3-|
B|-2/3-x-3--3-x-3-|-7-x-7--7-x-7-|-5-x-5--5-x-5-|-2/3-3--6/7-7--2/3-3-|
G|-3/4-x-4--4-x-4-|-5-x-5--5-x-5-|-5-x-5--5-x-5-|-3/4-4--4/5-5--3/4-4-|
D|-4/5-x-5--5-x-5-|-7-x-7--7-x-7-|-5-x-5--5-x-5-|-4/5-5--6/7-7--4/5-5-|
A|----------------|--------------|--------------|-4/5-5--4/5-5--4/5-5-|
E|----------------|--------------|--------------|-2/3-3---------2/3-3-|

F# G          D7           C              F# G  C#7 D7  F# G
   I want to go home, but home has gone away


   G             D7              C              G
   u d u  u d u   u d u  u d u   u d u  u d u   u d u  u d u   
e|-3-x-3--3-x-3-|-5-x-5--5-x-5-|-3-x-3--3-x-3-|-3-x-3--3-x-3-|
B|-3-x-3--3-x-3-|-7-x-7--7-x-7-|-5-x-5--5-x-5-|-3-x-3--3-x-3-|
G|-4-x-4--4-x-4-|-5-x-5--5-x-5-|-5-x-5--5-x-5-|-4-x-4--4-x-4-|
D|-5-x-5--5-x-5-|-7-x-7--7-x-7-|-5-x-5--5-x-5-|-5-x-5--5-x-5-|
A|--------------|--------------|--------------|--------------|
E|--------------|--------------|--------------|--------------|

G             D7   C             G
I want to go home, I want to go home, I want to go home


   G             D7              C             
   u d u  u d u   u d u  u d u   u d u  u d u   [FADE]
e|-3-x-3--3-x-3-|-5-x-5--5-x-5-|-3-x-3--3-x-3-|
B|-3-x-3--3-x-3-|-7-x-7--7-x-7-|-5-x-5--5-x-5-|
G|-4-x-4--4-x-4-|-5-x-5--5-x-5-|-5-x-5--5-x-5-|
D|-5-x-5--5-x-5-|-7-x-7--7-x-7-|-5-x-5--5-x-5-|
A|--------------|--------------|--------------|
E|--------------|--------------|--------------|

G          D7           C             [FADE]
I want to go home, but home has gone away



************************************

| x  Dead note
| /  Slide up

************************************

            
            
Suggest correction
Creating personal tab
Creating personal tab
You can edit any tab online and save it as your Personal.

You can edit, replace or remove any tab part or add personal notes – all changes will be seen only by you.

Personal tabs can be accessed anytime from any device, even offline.
Learn more »
Give kudos to tab author, rate the tab!
1 2 3 4 5
comments
print report bad tab
guest
You may want to rate the tab now too:
select rating
Wanna post a correction for this tab? Suggest correction