Oops, an error
Loading. Please wait.

Road To Hell bass

version 1
version 1

Whole song

Interactive

5,543 views 39 this week
1 commentread comment
1 2 3 4 5
x 5
add to favorites
×
Save as Personal and add changes to this tab that will be seen only by you. Learn more ›
×
You can save this tab as Personal to edit and correct it or add notes. All changes will be seen only by you. Learn more »
launch autoscroll
font size
0
reset
guitar tuner
backing track
0:00
0:00
edit
Autoscroll
slow
fast
+/-
esc
set tempo
stop
Author
Difficulty
Author's note : Hi fellow bass players, I am back on ultimate Guitar for more bass tabs 
to come so to please rate that TAB from Chris REA's best album "Road to Hell".. hoping 
you will use it !!
Any suggestion : leave me a message and see more of my tabs under Bruno Frenchy (Almost 
55000 musicians worldwide are using my 52 tabs, so far)...
So enjoy !!

Tempo : 135 bpm
Tuning : EADG


Intro
  [Opening Riff / Drums / Guitar] 
G-|--------------------|---------------------|-
D-|--------------------|---------------------|-
A-|--------------------|---------------------|-
E-|-----------------~--|---------------------|-

OPENING PATTERN - Bass 00:17 
G-|----------|----------||----------|----------|-
D-|----------|----------||----------|----------|-
A-|----------|----------||---3-5-55-|---3-5-55-|-
E-|-0-3-5-55-|-0-3-5-55-||-5--------|-5--------|-
                                              
G-|----------|----------||----------|----------|-
D-|----------|----------||----------|----------|-
A-|-5-3------|----------||----------|----------|-
E-|-----1-11-|-1--0--00-||-0-3-5-55-|-0-3-5-55-|-

G-|----------|----------||----------|----------|-
D-|----------|----------||----------|----------|-
A-|----------|----------||---3-5-55-|---3-5-55-|-
E-|-0-3-5-55-|-0-3-5-55-||-5--------|-5--------|-
 

G-|----------|----------||----------|----------|-
D-|----------|----------||----------|----------|-
A-|-7-5------|-5--------||----------|----------|-
E-|-----8-88-|---8-7-77-||-8-7-5-55-|-0-3-5-55-|-


VERSE 1 - 00:45 
G-|----------|----------||----------|----------|-
D-|----------|----------||----------|----------|-
A-|----------|----------||---3-5-55-|---3-5-55-|-
E-|-0-3-5-55-|-0-3-5-55-||-5--------|-5--------|-
  Well I'm standing by the river  
    But the water doesn't flow
                                               
G-|----------|----------||----------|----------|-
D-|----------|----------||----------|----------|-
A-|-5-3------|----------||----------|----------|-
E-|-----1-11-|-1--0--00-||-0-3-5-55-|-0-3-5-55-|-
     It boils with every poison you can think of

G-|----------|----------||----------|----------|-
D-|----------|----------||----------|----------|-
A-|----------|----------||---3-5-55-|---3-5-55-|-
E-|-0-3-5-55-|-0-3-5-55-||-5--------|-5--------|-
   And I'm underneath the streetlight  
     But the light of joy I know
                                               
G-|----------|----------||----------|----------|-
D-|----------|----------||----------|----------|-
A-|-7-5------|-5--------||----------|----------|-
E-|-----8-88-|---8-7-77-||-8-7-5-55-|-0-3-5-55-|-
      Scared beyond belief way down in the shadows

VERSE 2 - 01:14
G-|-----------------|------------|--------|----------|-
D-|-----------------|------------|---5-55-|-7-5-3-33-|-
A-|-----3-33------3-|-5-3--------|-5------|----------|-
E-|-3-5-------3-5---|-----5-3-33-|--------|----------|-
   And the perverted fear of violence
     Chokes the smile on every face

G-|----------|----------|-----------|--------|-
D-|-----3-33-|-5-3-2-22-|-02-02-02--|--------|-
A-|-3-5------|----------|-----------|-5------|-
E-|----------|----------|-----------|---5-55-|-
     And common sense is ringing out the bel

G-|----------|----------||----------|----------|-
D-|----------|----------||----------|----------|-
A-|----------|----------||---3-5-55-|---3-5-55-|-
E-|-0-3-5-55-|-0-3-5-55-||-5--------|-5--------|-
   This ain't no technological breakdown
     
G-|----------|----------||----------|----------|-
D-|----------|----------||----------|----------|-
A-|-5-3------|----------||----------|----------|-
E-|-----1-11-|-1--0--00-||-0-3-5-55-|-0-3-5-55-|-
      Oh no, this is the road to hell

INSTRUMENTAL BRIDGE - 01:44
G-|----------|----------|----------|----------|-
D-|----------|----------|----------|----------|-
A-|----------|----------|---3-5-55-|---3-5-55-|-
E-|-0-3-5-55-|-0-3-5-55-|-5--------|-5--------|-

G-|----------|----------|----------|----------|-
D-|----------|----------|----------|----------|-
A-|-5-3------|----------|-----3-33-|-5-3-2-22-|-
E-|-----3-33-|-0-1-3-33-|-3-5------|----------|-

G-|----------|-
D-|----------|-
A-|-3-2-0-00-|-
E-|----------|-


G-|----------|----------||----------|----------|-
D-|----------|----------||----------|----------|-
A-|----------|----------||---3-5-55-|---3-5-55-|-
E-|-0-3-5-55-|-0-3-5-55-||-5--------|-5--------|-

G-|----------|----------||----------|----------|-
D-|----------|----------||----------|----------|-
A-|-7-5------|-5--------||----------|----------|-
E-|-----8-88-|---8-7-77-||-8-7-5-55-|-0-3-5-55-|-


VERSE 3 - 02:10
G-|-----------------|------------|--------|----------|-
D-|-----------------|------------|---5-55-|-7-5-3-33-|-
A-|-----3-33------3-|-5-3--------|-5------|----------|-
E-|-3-5-------3-5---|-----5-3-33-|--------|----------|-
   And all the roads jam up with credit
      And there's nothing you can do
G-|----------|----------|-----------|--------|-
D-|-----3-33-|-5-3-2-22-|-02-02-02--|--------|-
A-|-3-5------|----------|-----------|-5------|-
E-|----------|----------|-----------|---5-55-|-
      It's all just pieces of paper flying away from you

G-|----------|----------||----------|----------|-
D-|----------|----------||----------|----------|-
A-|----------|----------||---3-5-55-|---3-5-55-|-
E-|-0-3-5-55-|-0-3-5-55-||-5--------|-5--------|-
   Oh look out world, take a good look
      What comes down here

G-|----------|----------||----------|----------|-
D-|----------|----------||----------|----------|-
A-|-5-3------|----------||----------|----------|-
E-|-----1-11-|-1--0--00-||-0-3-5-55-|-0-3-5-55-|-
      You must learn this lesson fast and learn it well

VERSE 4 - 02:39
G-|----------|----------||----------|----------|-
D-|----------|----------||----------|----------|-
A-|----------|----------||---3-5-55-|---3-5-55-|-
E-|-0-3-5-55-|-0-3-5-55-||-5--------|-5--------|-
   This ain't no upwardly mobile freeway
     
G-|----------|----------||----------|----------|-
D-|----------|----------||----------|----------|-
A-|-7-5------|-5--------||----------|-5--------|-
E-|-----8-88-|---8-7-77-||-5-7-8-88-|---8-7-77-|-
  Oh no, this is the road                  Said this is the road

G-|----------|----------|----------|----------|-
D-|----------|----------|----------|----------|-
A-|----------|-5--------|----------|----------|-
E-|-5-7-8-88-|---8-7-77-|-8-7-5-55-|-0-3-5-55-|-
      This is the road..... to hell

INSTRUMENTAL FINALE – 03:15 Repeat sequence til fade out
G-|----------|----------||----------|----------|-
D-|----------|----------||----------|----------|-
A-|----------|----------||---3-5-55-|---3-5-55-|-
E-|-0-3-5-55-|-0-3-5-55-||-5--------|-5--------|-
                                              
G-|----------|----------||----------|----------|-
D-|----------|----------||----------|----------|-
A-|-5-3------|----------||----------|----------|-
E-|-----1-11-|-1--0--00-||-0-3-5-55-|-0-3-5-55-|-

G-|----------|----------||----------|----------|-
D-|----------|----------||----------|----------|-
A-|----------|----------||---3-5-55-|---3-5-55-|-
E-|-0-3-5-55-|-0-3-5-55-||-5--------|-5--------|-
 

G-|----------|----------||----------|----------|-
D-|----------|----------||----------|----------|-
A-|-7-5------|-5--------||----------|----------|-
E-|-----8-88-|---8-7-77-||-8-7-5-55-|-0-3-5-55-|-


Ending : 04:30

            
            
Suggest correction
Creating personal tab
Creating personal tab
You can edit any tab online and save it as your Personal.

You can edit, replace or remove any tab part or add personal notes – all changes will be seen only by you.

Personal tabs can be accessed anytime from any device, even offline.
Learn more »
comments
print report bad tab
1 comment total.
0 reply
josh.mason.1610 10 May 05, 2014 03:40 AM

Everything seems perfect apart from the bit where you put;

G-|--------------------|---------------------|
D-|--------------------|-----5-55-------55---|
A-|-----3-33------3-33-|-3-5-------3-5-------|
E-|-3-5-------3-5------|---------------------|
And the perverted fear of violence...

G-|-2------------------|---------------------|
D-|---5-3-33------3-33-|-5-3-2-22--232--2----|
A-|-----------3-5------|------------------5--|
E-|--------------------|---------------------|

It seems like it should be transposed to the E and A strings.

Might just be me though.

Great tab.

guest
You may want to rate the tab now too:
select rating
Wanna post a correction for this tab? Suggest correction