Oops, an error
Loading. Please wait.

Nobody To Blame tab

24,076 views 183 this week
7 commentsread comments
1 2 3 4 5
x 21
add to favorites
×
Save as Personal and add changes to this tab that will be seen only by you. Learn more ›
×
You can save this tab as Personal to edit and correct it or add notes. All changes will be seen only by you. Learn more »
launch autoscroll
font size
0
reset
how to read this tab
guitar tuner
edit
Autoscroll
slow
fast
+/-
esc
set tempo
stop
**Drop D tuning**

*Capo the 2nd fret and make a D chord shape (sounds like an E because of the Capo) 
and then slide into a G chord on the 5th fret (sounds like an A) *

Like This: 

            D     G (fret numbers are relative to the capo)
e-----------2---------------|
B-----------3-------3-------|
G-----------2-------0-------|
D-----------0-------0-------|
A-----------x-----3/5-------|
D-----------0-----3/5-------|


[Intro Lick] (fret numbers are relative to the capo)

                       down strum up strum  
e--------------------------2----------2|
B--------------------------3----------3|
G--------------------------2----------2|
D--------------------------0----------0|
A---2/3-33\2p0-------------------------|
D--------------3/5-55\3p0--------------|


Lick: Live he adds stuff like this at the end of lines in the [Verse]

e---------------2-------------|
B---------------3-------------|
G---------------2-------------|
D---------------0-------------|
A------3p0--------------------|
D----------3p0----------------|


D
She took down the photograph of our wedding day
D
Ripped it down the middle and threw my half away
          G                   D
And I got nobody to blame but me (Lick)
      G                   D 
I got nobody to blame but me (Lick)

D
She broke all my fishing rods, put my guns in hock
D
Threw my clothes out in the yard and changed out all the locks
          G                    D
And I got nobody to blame but me (Lick)
       G.                  D
I got nobody to blame but me (Lick)


[Chorus]

D
I know right where I went wrong
G                        D
I know just what got her gone
D                                G 
Turned my life into this country song
G                             D
And I got nobody to blame but me (Lick)
      G                   D
I got nobody to blame but me (Lick)


[Lead Break]

e--------2-2------2-2------2-2------2-2------------------2--------|
B--------3-3------3-3------3-3------3-3------------------3--------|
G----0h2-2-2-0h2--2-2--0h2-2-2--0h2-2-2--0h2-0-----------2--------|
D--------0-0------0-0------0-0------0-0---------3p0------0-----0--|
A---------------------------------------------------3p0-----0h3---|
D-----------------------------------------------------------------|

e--------2-2------2-2------2-2------2-2------------------2--------|
B--------3-3------3-3------3-3------3-3------------------3--------|
G----0h2-2-2-0h2--2-2--0h2-2-2--0h2-2-2--0h2-0-----------2--------|
D--------0-0------0-0------0-0------0-0---------3p0------0--------|
A---------------------------------------------------3p0-----------|
D-----------------------------------------------------------------|

e---------------------2------|
B---------------------3------|
G---------------------2------| 3X
D--------0-3--3p0-----0------|
A--0h1/2----------3p0--------|
D----------------------------|

           up strum
e-----------2----------------|
B-----------3----------------|
G-----------2----------------|
D-----------0----------------|
A-----------0----------------|
D-----------0----------------|

She fired up my old hot rod, ran it in the pond
Put sugar in my John Deere, I can't even mow my lawn
And I got nobody to blame but me (lick)
I got nobody to blame but me (lick)

She built her a bonfire With my old six string
Took all my good whiskey and poured it down the drain
And I got nobody to blame but me (lick)
I got nobody to blame but me (lick)


[Chorus]

D
I know right where I went wrong
G                        D
I know just what got her gone
D                                G 
Turned my life into this country song
G                             D
And I got nobody to blame but me (Lick)
      G                   D
I got nobody to blame but me (Lick)


[Outro] (fret numbers are relative to the capo)

                       down strum up strum  
e--------------------------2----------2|
B--------------------------3----------3|
G--------------------------2----------2|
D--------------------------0----------0|
A---2/3-33\2p0-------------------------|
D--------------3/5-55\3p0--------------|

[Outro Chords under solo]
       D       C  G   
e------2---------------|
B------3----------3----|
G------2-------5--0----|
D------0-------5--0----|
A------x-------3--5----|
D------0-------x--5----|

            
            
Suggest correction
Creating personal tab
Creating personal tab
You can edit any tab online and save it as your Personal.

You can edit, replace or remove any tab part or add personal notes – all changes will be seen only by you.

Personal tabs can be accessed anytime from any device, even offline.
Learn more »
comments
print report bad tab
7 comments total. Showing first comments. show 1 bad comment
+1 reply
heintzel 10 Apr 19, 2016 11:05 AM

I believe the very first notes of the intro lick are incorrect, they are correct without respect to the capo, in respect to the capo they should be changed from 4/5 to 2/3, however the E string is correct.

+1 reply
JacobWilliam13 246 Apr 25, 2016 03:48 AM

@heintzel - Yep you are right. I corrected it. Thanks for the observation.

guest
You may want to rate the tab now too:
select rating
Wanna post a correction for this tab? Suggest correction