Oops, an error
Loading. Please wait.

Me Mentiste chords

20 views 1 this week
no commentswrite comment
1 2 3 4 5
3 more votes to show rating
add to favorites
×
Save as Personal and add changes to this tab that will be seen only by you. Learn more ›
×
You can save this tab as Personal to edit and correct it or add notes. All changes will be seen only by you. Learn more »
launch autoscroll
font size
0
reset
transpose
0
reset
display chords
guitar tuner
edit
Autoscroll
slow
fast
+/-
esc
set tempo
stop
Strumming
There is no strumming pattern for this song yet. and get +5 IQ
0olaaa..  soi christiannN!!!  esta rolaa ...
es para las mentirosas y mentiro0sos jeje
ojala ke les gustee... amm si hay una duda o  tengo mal un acorde
pss a ki esta mi correo es parra338@
y mi myspace es   ok!!!

 el acorde de "A" (la).... se toka asi...


    E  0
    B  0
    G  2
    D  2
    A  0
    E  0


(Intro)
A-E-F#m-A

(verso 1)
  A                                 E
Quiza pongas cara sincera pero te conosco ya lo suficente
       A                                   E
ya me canse de buscar la manera de que me hables con
                  A           E
sinceridad,mirame bien en tu memoria guarda esta fotografia
             A           E                                     F#m    A
por que mi amor se me escapo ese sentimiento que tenia se me escapo

       A                                      E
Tu descubriste la fuerza de una mentira y planeaste bien en que
               A                               E
decirme y decidiste tomar el camino facil concluyendo todo

con mentirme

           A                   E
El dicho dice te mienten una ves y te vuelven a mentir
     A               E
perdoname pero tu tiempo se acabo y te tienes que ir
              F#m            A
te tienes que ir


(coro)
              A                  E
Guarda tus palabras no quiero escuchar puedes comenzar
      C#m                          B
a empacar para que te vayas y que solo queden memorias
               A                  E
y ahorrate mentiras sueltame mi amor veo tu dolor pero
     C#m                  B                          A      E   F#m  A
aceptalo ya mi vida me mentiste y me perdiste por siempre


(verso2)

         A                                 E
Y tu lo sabes no te olvidare por que tu fuiste lo mejor en mi,
            A                               E
si quieres verme solo llamame yo sere solo tu amigo
            A                      E
nunca me perderas y te mereces el perdon de mi persona,
          A          E
pero mi amor hay diferentes formas en que uno
               F#m           A
perdona, no volvere, no volvere.


(coro)
              A                  E
Guarda tus palabras no quiero escuchar puedes comenzar
      C#m                          B
a empacar para que te vayas y que solo queden memorias
               A                  E
y ahorrate mentiras sueltame mi amor veo tu dolor pero
     C#m                  B                         C#m  B  A  B C#m B
aceptalo ya mi vida me mentiste y me perdiste por siempre

(Solo)

e----------------------------------------------------------|
B----------------------------------------------------------|
G----------------------------------------------------------|
D-----4-4/6-4------4-4/6-4-2-4-2-----4-4/6-6-6/7-7-7/9-----|
A-4-7----------4-7---------------4-7-----------------------|
E----------------------------------------------------------|

e---------------------------------|
B-2-4-5-4-2-4-5-4-2-4-5-5/9-7-5---|
G---------------------------------|
D---------------------------------|
A---------------------------------|
E---------------------------------|


(Coro)

e---7-----7----7-|----7------7------7-|---7-----7-----7--|
B-----7----7-----|------7------7------|-----7-----7------|
G-9-----9----9---|-11-----11-----11---|-9-----9-----9----|
D----------------|--------------------|------------------|
A----------------|--------------------|------------------|
E----------------|--------------------|------------------|


e---7-----7-----7--|
B-----7-----7------|
G-8-----8-----8----|
D------------------|
A------------------|
E------------------|


              A                  E
Guarda tus palabras no quiero escuchar puedes comenzar
      C#m                          B
a empacar para que te vayas y que solo queden memorias
               A                  E
y ahorrate mentiras sueltame mi amor veo tu dolor pero
     C#m                  B                          C#m   B  A  B  E
aceptalo ya mi vida me mentiste y me perdiste por siempre

            
            
Suggest correction
Creating personal tab
Creating personal tab
You can edit any tab online and save it as your Personal.

You can edit, replace or remove any tab part or add personal notes – all changes will be seen only by you.

Personal tabs can be accessed anytime from any device, even offline.
Learn more »
Give kudos to tab author, rate the tab!
1 2 3 4 5
comments
print report bad tab
guest
Wanna post a correction for this tab? Suggest correction