Oops, an error
Loading. Please wait.

Almighty tab

212 views 1 this week
no commentswrite comment
1 2 3 4 5
3 more votes to show rating
add to favorites
×
Save as Personal and add changes to this tab that will be seen only by you. Learn more ›
×
You can save this tab as Personal to edit and correct it or add notes. All changes will be seen only by you. Learn more »
launch autoscroll
font size
0
reset
how to read this tab
guitar tuner
edit
Autoscroll
slow
fast
+/-
esc
set tempo
stop
Author
-------------------------------------------------------------------------------
                             almighty - chris tomlin
-------------------------------------------------------------------------------
Tabbed by:
E-mail:
key of D
Tuning:E-A-D-G-B-e
  D                  D               Bm7                 Bm7
e|2-------------0--2-2----------0--0--2-------------0--2--2----------0-----0--|
B|3-3----3---3-------3-3----3---------0-3---3---3---------0--3--3-------------|
G|2------2------2--2-2------2------2--2-------------------2-------------------|
D|0------------------0----------------0-------------------0-------------------|
A|------------------------------------2-----2-------2--2--2-----2----------2--|
E|----------------------------------------------------------------------------|
   You have no rival  you stand alone  the heavens worship  before your throne 
e|--------------5---2----0---------------------------------------------------|
B|---3----2--0---------------------------------------------------------------|
G|------------------2----2---------------------------------------------------|
D|--------------0------------------------------------------------------------|
A|---2-----------------------------------------------------------------------|
E|-----------3---------------------------------------------------------------|
   there is no one like you (repeat notes)
e|---------3-2-2---0----0--2----2--3----3---2---2--0----0------------3-2-0-0-|
B|-------3-3---3--------------------------------3---------3-3----3---3-3-----|
G|------------------------------2-------2------------------------------------|
D|---------------------------------------------------------------------------|
A|----------------------4-------------------------------4---2--------------4-|
E|---------------------------------------------------------------------------|
chorus: almighty were standing in the presence of your majesty your holy you
e|-2--2---3---3--2-------2----0---0-------------------------------0----------|
B|-----------------------3----------3-3---3---2----2---0----0-------3-3------|
G|----2-------2---------------------------2---------------------2-2----------|
D|--------------------------------------------------------------------0------|
A|--------------------------------4---2--------------------------------------|
E|----------------------------------------------------------3----------------|
   alone the sovereign crown of royalty your the king of kings almighty
e|2-----------0-2-2-2----------0--0-2---------------0--2--2---------0---0----------------|
B|3-3---3---3-------3-3----3--------0-3-----3----3--------0---3---3----------3----2------|
G|2-----2-----2---2-2------2------2-2---------------------2------------------------------|
D|0-----------------0---------------0---------------------0------------------------------|
A|----------------------------------2-------2-------2--2--2-------2-----2----2-----------|
E|---------------------------------------------------------------------------------------|
   our God eternal   the great i am  the praise of angels   will never end there is
e|-----5----2---0--2------------0-2-2------------0---0--2--------------0--2-------3---2----|
B|--0--------------3--3-3---3-------3---3---3-----------0-3---3----3----------3------------|
G|----------2---2--2----2-------2-2-2-------2--------2--2-------------------------2--------|
D|-----0-----------0----------------0-------------------0----------------------------------|
A|------------------------------------------------------2-----2--------2--2----------------|
E|--3--------------------------------------------------------------------------------------|
   no one like you   eyes like fire   face like the sun   a voice of thunder who was and
e|--2--0---0-----------------------------------------------------------------|
B|------------3---3----------------------------------------------------------|
G|---------2-----------------------------------------------------------------|
D|----------------0----------------------------------------------------------|
A|--2------------------------------------------------------------------------|
E|---------------------------------------------------------------------------|
   is and is to come  (back to chorus)
e|------5--5---5--5--5--5----5---3--2-0-----5--5----5---5---5--5--5--3----2--0-|
B|-------------------------------3----2-3-3------------------------------------|
G|---------------------------------------------------------------------------2-|
D|---------0------0-----0----0-------------------------------------------------|
A|-------------------------------------------------------------------2---------|
E|-----------------------------------------------------------------------------|
bridge: i see the holy one high and exalted i hide my eyes and i tremble before
e|---------------------------------------------------------------------------|
B|3-3------------------------------------------------------------------------|
G|---------------------------------------------------------------------------|
D|--0------------------------------------------------------------------------|
A|---------------------------------------------------------------------------|
E|---------------------------------------------------------------------------|
   him (repeat words and notes)
   ************************************

| /   slide up
| \   slide down
| h   hammer-on
| p   pull-off
| ~   vibrato
| +   harmonic
| x   Mute note
| b   Bend
| pb  Pre-bend
| br  Bend release
| pbr Pre-bend release
| brb Bend release bend

************************************

            
            
Suggest correction
Creating personal tab
Creating personal tab
You can edit any tab online and save it as your Personal.

You can edit, replace or remove any tab part or add personal notes – all changes will be seen only by you.

Personal tabs can be accessed anytime from any device, even offline.
Learn more »
Give kudos to tab author, rate the tab!
1 2 3 4 5
comments
print report bad tab
guest
You may want to rate the tab now too:
select rating
Wanna post a correction for this tab? Suggest correction