Oops, an error
Loading. Please wait.

Gods Great Dance Floor bass

1,775 views 12 this week
no commentswrite comment
1 2 3 4 5
2 more votes to show rating
add to favorites
×
Save as Personal and add changes to this tab that will be seen only by you. Learn more ›
×
You can save this tab as Personal to edit and correct it or add notes. All changes will be seen only by you. Learn more »
launch autoscroll
font size
0
reset
guitar tuner
edit
Autoscroll
slow
fast
+/-
esc
set tempo
stop
Author
-------------------------------------------------------------------------------
                             God's Great Dance Floor - Chris Tomlin
-------------------------------------------------------------------------------
Tabbed by: ffdavis0925
 

Tuning:Standard EADG

Intro 
Take me....This is all I can bring
G|-----------------------------------------------------------------------------|
D|-----------------------------------------------------------------------------|
A|3-------------6~-------------------------------------------------------------|
E|-3~-------6~-----------------------------------------------------------------|

Pre-Verse 
G|-----------------------------------------------------------------------------|
D|-----------------------------------------------------------------------------|
A|-----------------------------------------------------------------------------|
E|2\10--------2\10-------------------------------------------------------------|

Verse 
I'm coming back to the start....
G|-----------------------------------------------------------------------------|
D|---------------6\88----------------------------888---------------------------|
A|5556-6-6-6-6-6------8-8-8-8-8-8-5556-6-6-6-6-6-----8-8-8-8-8-8-8-------------|
E|-----------------------------------------------------------------------------|

Take me....This is all I can bring
G|-----------------------------------------------------------------------------|
D|-----------------------------------------------------------------------------|
A|333------------11-1-1-1-1-66-6-6-6-6-----------------------------------------|
E|---3-3-3-3-3-3---------------------------------------------------------------|

Chorus 
You'll never stop loving us
G|-----------------------------------------------------------------------------|
D|-------------------333333333333--------------------333333333333--------------|
A|555666666666666-111-------------555666666666666-111--------------------------|
E|-----------------------------------------------------------------------------|

G|-----------------------------------------------------------------------------|
D|-----------------------------------------------------------------------------|
A|555666666666666-111-------------555666666666666-111--------------------------|
E|-------------------111111111111--------------------111111111111--------------|

Pre-Chorus
Take me....This is all I can bring
G|-----------------------------------------------------------------------------|
D|-----------------------------------------------------------------------------|
A|3-------------6~-------------------------------------------------------------|
E|-3~-------6~-----------------------------------------------------------------|

Chorus
You'll never stop loving us
G|-----------------------------------------------------------------------------|
D|-----------------------------------------------------------------------------|
A|555666666666666-111-------------555666666666666-111--------------------------|
E|-------------------111111111111--------------------111111111111--------------|

G|-----------------------------------------------------------------------------|
D|-------------------333333333333--------------------333333333333--------------|
A|555666666666666-111-------------555666666666666-111--------------------------|
E|-----------------------------------------------------------------------------|

Outro
I Feel Alive
G|-----------------------------------------------------------------------------|
D|--------8--8-8--------------------------8--8-8-----------3--3-3--------------|
A|55666666-66-6--111-------------555666666-66-6--111---------------------------|
E|--------------------111111111111-------------------111111-11-1---------------|

G|-----------------------------------------------------------------------------|
D|---------8--8-8---------------------------------8--8-8----------3--3-3-------|
A|555666666-66-6--111--------------------555666666-66-6--111-------------------|
E|-------------------111111\131313131313--------------------111111-11-1--------|

G|-----------------------------------------------------------------------------|
D|---------8--8-8---------------------------------8--8-8-----------------------|
A|555666666-66-6--111--------------------555666666-66-6--111-------------------|
E|-------------------111111\131313131313--------------------111111\131313131313|

G|-----------------------------------------------------------------------------|
D|---------8--8-8--------------------------8--8-8------------------------------|
A|555666666-66-6--111-------------555666666-66-6--111--------------------------|
E|-------------------111111111111--------------------111111111111~-------------|

| /  slide up
| \  slide down
| h  hammer-on
| p  pull-off
| ~  vibrato
| +  harmonic
| x  Mute note
===============================================================================

            
            
Suggest correction
Creating personal tab
Creating personal tab
You can edit any tab online and save it as your Personal.

You can edit, replace or remove any tab part or add personal notes – all changes will be seen only by you.

Personal tabs can be accessed anytime from any device, even offline.
Learn more »
Give kudos to tab author, rate the tab!
1 2 3 4 5
comments
print report bad tab
guest
You may want to rate the tab now too:
select rating
Wanna post a correction for this tab? Suggest correction