Oops, an error
Loading. Please wait.

I Will Rise bass

4,386 views 15 this week
3 commentsread comments
1 2 3 4 5
x 11
add to favorites
×
Save as Personal and add changes to this tab that will be seen only by you. Learn more ›
×
You can save this tab as Personal to edit and correct it or add notes. All changes will be seen only by you. Learn more »
launch autoscroll
font size
0
reset
guitar tuner
edit
Autoscroll
slow
fast
+/-
esc
set tempo
stop
Author
Difficulty
-----------------------------------------------------------------------------
                          I Will Rise - Chris Tomlin
-----------------------------------------------------------------------------
Tabbed By : theKorean

There's no bass until you get to the bridge. The bass riff is a walking bass line and it 
isn't that  hard to play. If you want to watch Jesse Reeves (Chris Tomlin's bassist) 
play the bass line, here it is: http://www.youtube.com/watch?v=05nSph7LTTE

Good luck and God bless!


Tuning: Standard

G|------------------------------------------------------------------------|
D|-------------------------------------------------4-4-4---4-4------------|
A|---------2-2-2-----------1-1-------------2-2-2-4-------4----------------|
E|-0-0-2-4-------4-2-2-2-4-----4-2-0-0-2-4---------------------4-2--------|

G|-------------------------------------------------------1-3-3-1---------|
D|-------------------------------------------------4-4-4---------4-------|
A|---------2-2-2-----------1-1-------------2-2-2-4-----------------------|
E|-0-0-2-4-------4-2-2-2-4-----4-2-0-0-2-4-------------------------------|

G|-------------------------------------------------------1-3-3-4-6-------|
D|-------------------------------------------------4-4-4-----------------|
A|---------2-2-2-----------1-1-------------2-2-2-4-----------------------|
E|-0-0-2-4-------4-2-2-2-4-----4-2-0-0-2-4-------------------------------|

G|-----------------------------------------------------------------------|
D|-------------------------------------------------4-4-4-4-4-4-4-4-------|
A|---------2-2-2---------------------------2-2-2-4-----------------------|
E|-0-0-2-4-------4-2-2-2-2-4-4-4-4-0-0-2-4-------------------------------|

G|------------------------------------------------------------------------|
D|-----------------4-4-4-4-4-4-4-4----------------------------------------|
A|---------2-2-2-4--------------------------------------------------------|
E|-0-0-2-4-------------------------2~-------------------------------------|



| /  slide up
| \  slide down
| h  hammer-on
| p  pull-off
| ~  vibrato
| +  harmonic
| x  Mute note

            
            
Suggest correction
Creating personal tab
Creating personal tab
You can edit any tab online and save it as your Personal.

You can edit, replace or remove any tab part or add personal notes – all changes will be seen only by you.

Personal tabs can be accessed anytime from any device, even offline.
Learn more »
comments
print report bad tab
3 comments total.
0 reply
itzkpanda 196 Mar 07, 2012 01:26 PM

Very good! Thank you!

0 reply
iLoveYou12345 10 Mar 07, 2012 01:29 PM

thx for the tab, i looked forit everywhre but couldnt find it til now.

0 reply
mnm2206 10 Sep 09, 2013 06:08 PM

Great tab! Thanks so much!

guest
You may want to rate the tab now too:
select rating
Wanna post a correction for this tab? Suggest correction