Oops, an error
Loading. Please wait.

Sing Sing Sing tab

version 2
version 2

Whole song

Interactive

325 views 1 this week
no commentswrite comment
1 2 3 4 5
3 more votes to show rating
add to favorites
×
Save as Personal and add changes to this tab that will be seen only by you. Learn more ›
×
You can save this tab as Personal to edit and correct it or add notes. All changes will be seen only by you. Learn more »
launch autoscroll
font size
0
reset
how to read this tab
guitar tuner
edit
Autoscroll
slow
fast
+/-
esc
set tempo
stop
Author
Difficulty
Title: Sing, Sing, Sing
Artist: Chris Tomlin
Album: God of This City (Passion Album)
Tabbed by Dave970719

[Intro]

e|---------------------------------------------------------------------------|
B|---------------------------------------------------------------------------|
G|---------------------------------------------------------------------------|
D|------9-------9-------9-------9-------9------------------------------------| x4
A|----7---7---7---7---7---7---7---7---7---7----------------------------------|
E|--7-------7-------7-------7-------7-------7--------------------------------|


[Verse]

   We will sing, sing, sing...                        We will
e|---------------------------------------------------------------------------|
B|---------------------------------------------------------------------------|
G|---------------------------------------------------------------------------|
D|------9-------9-------9-------9-------9-------9-------9--------------------|
A|----7---7---7---7---7---7---7---7---7---7---7---7---7---7------------------|
E|--7-------7-------7-------7-------7-------7-------7-------7----------------|

   sing, sing, sing...                                When we
e|---------------------------------------------------------------------------|
B|---------------------------------------------------------------------------|
G|---------------------------------------------------------------------------|
D|------9-------9-------9-------9-------9-------9-------9--------------------|
A|----7---7---7---7---7---7---7---7---7---7---7---7---7---7------------------|
E|--9-------9-------9-------9-------9-------9-------9-------9----------------|

    shout your praise           Lift high the name of Jesus
e|---------------------------------------------------------------------------|
B|---------------------------------------------------------------------------|
G|---------------------------------------------------------------------------|
D|------9-------9-------9-------9-------9-------9-------9--------------------|
A|----7---7---7---7---7---7---7---7---7---7---7---7---7---7------------------|
E|--7-------7-------7-------7-------5-------5-------5-------5----------------|

e|---------------------------------------------------------------------------|
B|---------------------------------------------------------------------------|
G|---------------------------------------------------------------------------|
D|------7-9~---9--------7-9~---9------7-9~---9--------7-9~---9---------------|
A|----7------7---7----7------7------7------7---7----7------7---7-------------|
E|--7---------------7-------------7---------------7--------------------------|

    Sing, sing, sing
e|---------------------------------------------------------------------------|
B|---------------------------------------------------------------------------|
G|---------------------------------------------------------------------------|
D|------9-------9-------9-------9-------9-------9-------9--------------------|
A|----7---7---7---7---7---7---7---7---7---7---7---7---7---7------------------|
E|--7-------7-------7-------7-------7-------7-------7-------7----------------|

   Sing, sing, sing
e|---------------------------------------------------------------------------|
B|---------------------------------------------------------------------------|
G|---------------------------------------------------------------------------|
D|------9-------9-------9-------9-------9-------9-------9--------------------|
A|----7---7---7---7---7---7---7---7---7---7---7---7---7---7------------------|
E|--9-------9-------9-------9-------9-------9-------9-------9----------------|

    shout your praise              high the name
e|---------------------------------------------------------------------------|
B|---------------------------------------------------------------------------|
G|---------------------------------------------------------------------------|
D|--9~-----------------------------7~----------------------------------------|
A|--9~-----------------------------7~----------------------------------------|
E|--7~-----------------------------5~----------------------------------------|

e|---------------------------------------------------------------------------|
B|---------------------------------------------------------------------------|
G|--9-9-9-9-9-9-9-9-9-9--14-14-13-13-13-13-----------------------------------| x2
D|--x-x-x-x-x-x-x-x-x-x--x--x--x--x--x--x------------------------------------|
A|--7-7-7-7-7-7-7-7-7-7--12-12-11-11-11-11-----------------------------------|
E|---------------------------------------------------------------------------|


[Interlude 1]

e|-------------------------------------------------------------------|
B|-------------------------------------------------------------------|
G|--9-9-9-9-9-9-9-9-9-9--14-14-13-13-13-13---------------------------|
D|--x-x-x-x-x-x-x-x-x-x--x--x--x--x--x--x----------------------------| x2
A|--7-7-7-7-7-7-7-7-7-7--12-12-11-11-11-11---------------------------|
E|-------------------------------------------------------------------|


e|-----------------------------|
B|-----------------------------|
G|-9~--------------------------|
D|-9~--------------------------|
A|-7~--------------------------|
E|-----------------------------|


[Verse 2]

   What's not to love about you?
e|---------------------------------------------------------------------------|
B|---------------------------------------------------------------------------|
G|---------------------------------------------------------------------------|
D|---------------------------------------------------------------------------|
A|---------------------------------------------------------------------------|
E|---------------------------------------------------------------------------|

   kings and kingdoms bow down
e|---------------------------------------------------------------------------|
B|---------------------------------------------------------------------------|
G|---------------------------------------------------------------------------|
D|------9-------9-------9-------9-------9-------9-------9--------------------|
A|----7---7---7---7---7---7---7---7---7---7---7---7---7---7------------------|
E|--9-------9-------9-------9-------9-------9-------9-------9----------------|

   the one              you are the one
e|---------------------------------------------------------------------------|
B|---------------------------------------------------------------------------|
G|---------------------------------------------------------------------------|
D|------9-------9-------9-------9-------9-------9-------9--------------------|
A|----7---7---7---7---7---7---7---7---7---7---7---7---7---7------------------|
E|--7-------7-------7-------7-------5-------5-------5-------5----------------|

e|---------------------------------------------------------------------------|
B|---------------------------------------------------------------------------|
G|---------------------------------------------------------------------------|
D|------7-9~---9--------7-9~---9------7-9~---9--------7-9~---9---------------|
A|----7------7---7----7------7------7------7---7----7------7---7-------------|
E|--7---------------7-------------7---------------7--------------------------|

   You are the love
e|---------------------------------------------------------------------------|
B|---------------------------------------------------------------------------|
G|---------------------------------------------------------------------------|
D|------9-------9-------9-------9-------9-------9-------9--------------------|
A|----7---7---7---7---7---7---7---7---7---7---7---7---7---7------------------|
E|--7-------7-------7-------7-------7-------7-------7-------7----------------|

         Like a fire burning
e|---------------------------------------------------------------------------|
B|---------------------------------------------------------------------------|
G|---------------------------------------------------------------------------|
D|------9-------9-------9-------9-------9-------9-------9--------------------|
A|----7---7---7---7---7---7---7---7---7---7---7---7---7---7------------------|
E|--9-------9-------9-------9-------9-------9-------9-------9----------------|

   the one
e|---------------------------------------------------------------------------|
B|---------------------------------------------------------------------------|
G|---------------------------------------------------------------------------|
D|--9-9-9-9--9-9-9-9--9-9-9-9---7-7-7-7--7-7-7-7--7-7-7-7--------------------|
A|--9-9-9-9--9-9-9-9--9-9-9-9---7-7-7-7--7-7-7-7--7-7-7-7--------------------|
E|--7-7-7-7--7-7-7-7--7-7-7-7---5-5-5-5--5-5-5-5--5-5-5-5--------------------|

e|---------------------------------------------------------------------------|
B|---------------------------------------------------------------------------|
G|--9-9-9-9--9-9-9-9--9-9-9-9--9-9-9-9---------------------------------------|
D|--9-9-9-9--9-9-9-9--9-9-9-9--9-9-9-9---------------------------------------|
A|--7-7-7-7--7-7-7-7--7-7-7-7--7-7-7-7---------------------------------------|
E|---------------------------------------------------------------------------|


[Chorus 1]

   We will sing, sing, sing           x2    We will sing, sing, sing             x2 
e||-------------------------------------||---------------------------------------||
B||-------------------------------------||---------------------------------------||
G||-9-9-9-9--9-9-9-9--9-9-9-9--9-9-9-9--||----6-6-6-6--6-6-6-6--6-6-6-6--6-6-6-6-||
D||-9-9-9-9--9-9-9-9--9-9-9-9--9-9-9-9--||----6-6-6-6--6-6-6-6--6-6-6-6--6-6-6-6-||
A||-7-7-7-7--7-7-7-7--7-7-7-7--7-7-7-7--||----4-4-4-4--4-4-4-4--4-4-4-4--4-4-4-4-||
E||-------------------------------------||---------------------------------------||

   When we shout your praise               Lift high the name
e|---------------------------------------------------------------------------------|
B|---------------------------------------------------------------------------------|
G|-4-4-4-4--4-4-4-4--4-4-4-4--4-4-4-4------2-2-2-2--2-2-2-2--2-2-2-2--2-2-2-2------|
D|-4-4-4-4--4-4-4-4--4-4-4-4--4-4-4-4------2-2-2-2--2-2-2-2--2-2-2-2--2-2-2-2------|
A|-2-2-2-2--2-2-2-2--2-2-2-2--2-2-2-2------0-0-0-0--0-0-0-0--0-0-0-0--0-0-0-0------|
E|---------------------------------------------------------------------------------|


[Interlude 2]

e|---------------------------------------------------------------------------|
B|---------------------------------------------------------------------------|
G|--9-9-9-9-9-9-9-9-9-9--14-14-13-13-13-13-----------------------------------|
D|--x-x-x-x-x-x-x-x-x-x--x--x--x--x--x--x------------------------------------|
A|--7-7-7-7-7-7-7-7-7-7--12-12-11-11-11-11-----------------------------------|
E|---------------------------------------------------------------------------|

e|---------------------------------------------------------------------------|
B|---------------------------------------------------------------------------|
G|--7-7-7-7-7-7-7-7-7-7--14-14-13-13-13-13--9-9-9-9-9-9-9-9-9-9--------------|
D|--x-x-x-x-x-x-x-x-x-x--x--x--x--x--x--x---x-x-x-x-x-x-x-x-x-x--------------|
A|--5-5-5-5-5-5-5-5-5-5--12-12-11-11-11-11--7-7-7-7-7-7-7-7-7-7--------------|
E|---------------------------------------------------------------------------|

e|--------------------------15--15--15--15--15-------------------------------|
B|--------------------15b17---17--17--17--17--17br15-------------------------|
G|-------12--12--------------------------------------------------------------|
D|--12b14--14--14br12---------------------------------2~---------------------|
A|----------------------------------------------------2~---------------------|
E|----------------------------------------------------0~---------------------|


[Chorus 1]

   Sing, sing, sing...                     of Jesus
e|---------------------------------------------------------------------------------|
B|---------------------------------------------------------------------------------|
G|-----------------------------------------9-9-9-9--9-9-9-9--9-9-9-9--9-9-9-9------|
D|-----------------------------------------9-9-9-9--9-9-9-9--9-9-9-9--9-9-9-9------|
A|-----------------------------------------7-7-7-7--7-7-7-7--7-7-7-7--7-7-7-7------|
E|---------------------------------------------------------------------------------|
 
   We will sing, sing, sing                We will sing, sing, sing
e|---------------------------------------------------------------------------------|
B|---------------------------------------------------------------------------------|
G|-----------------------------------------6-6-6-6--6-6-6-6--6-6-6-6--6-6-6-6------| x2
D|-----------------------------------------6-6-6-6--6-6-6-6--6-6-6-6--6-6-6-6------|
A|-----------------------------------------4-4-4-4--4-4-4-4--4-4-4-4--4-4-4-4------|
E|---------------------------------------------------------------------------------|

   When we shout your praise               Lift high the name
e|---------------------------------------------------------------------------------|
B|---------------------------------------------------------------------------------|
G|-4-4-4-4--4-4-4-4--4-4-4-4--4-4-4-4------2-2-2-2--2-2-2-2--2-2-2-2--2-2-2-2------|
D|-4-4-4-4--4-4-4-4--4-4-4-4--4-4-4-4------2-2-2-2--2-2-2-2--2-2-2-2--2-2-2-2------|
A|-2-2-2-2--2-2-2-2--2-2-2-2--2-2-2-2------0-0-0-0--0-0-0-0--0-0-0-0--0-0-0-0------|
E|---------------------------------------------------------------------------------|


[Outro]

e|---------------------------------------------------------------------------|
B|---------------------------------------------------------------------------|
G|--9-9-9-9--9-9-9-9--9-9-9-9--9-9-9-9--9-9-9-9--9-9-9-9--9-9-9-9--9-9-9-9---|
D|--9-9-9-9--9-9-9-9--9-9-9-9--9-9-9-9--9-9-9-9--9-9-9-9--9-9-9-9--9-9-9-9---|
A|--7-7-7-7--7-7-7-7--7-7-7-7--7-7-7-7--7-7-7-7--7-7-7-7--7-7-7-7--7-7-7-7---|
E|---------------------------------------------------------------------------|

The song then ends with the drum kicking into one last verse/chorus.



************************************

| x   Dead note
| b   Bend
| br  Bend release
| ~   Vibrato

************************************

            
            
Suggest correction
Creating personal tab
Creating personal tab
You can edit any tab online and save it as your Personal.

You can edit, replace or remove any tab part or add personal notes – all changes will be seen only by you.

Personal tabs can be accessed anytime from any device, even offline.
Learn more »
Give kudos to tab author, rate the tab!
1 2 3 4 5
comments
print report bad tab
guest
You may want to rate the tab now too:
select rating
Wanna post a correction for this tab? Suggest correction