Oops, an error
Loading. Please wait.

Your Grace Is Enough bass

version 3
version 3

Whole song

Interactive

1,007 views 3 this week
no commentswrite comment
1 2 3 4 5
3 more votes to show rating
add to favorites
×
Save as Personal and add changes to this tab that will be seen only by you. Learn more ›
×
You can save this tab as Personal to edit and correct it or add notes. All changes will be seen only by you. Learn more »
launch autoscroll
font size
0
reset
guitar tuner
edit
Autoscroll
slow
fast
+/-
esc
set tempo
stop
Author
The other versions on here are pretty close but incorrect in spots, mine's 100%. 
Listen to the recording.

YOUR GRACE IS ENOUGH – CHRIS TOMLIN 
Intro - Bass in on the 5th measure 
Rhythm = Driving Eighth Notes 
G|-------------------------------------------| 
D|-------------------------------------------| 
A|-00000000--44444444--55555555--555-99-77---| 
E|-------------------------------------------| 
 
Verse Rhythm = Quarter Notes 
G|-------------------------------------------| 
D|-------------------------------------------| 
A|-0-0-0-0--4-4-4-4--5-5-5-5-5-5-5-5---------| 
E|-------------------------------------------| 
 
G|-------------------------------------------| 
D|-------------------------------------------| 
A|-9-9-9-9--7-7-7-7--5-5-5-5-5-5-5-5---------| 
E|-------------------------------------------| 
^PLAY TWICE^ 
 
Pre-Chorus Rhythm = Quarter Notes 
G|-------------------------------------------| 
D|-------------------------------------------| 
A|-2-2-2-2--4-4-4-4--5-5-5-5--7-7-7-7--------| 
E|-------------------------------------------| 
 
G|-------------------------------------------| 
D|-------------------------------------------| 
A|-------------------5-5-5-5-5-5-5-5---------| 
E|-2-2-2-2--4-4-5-5--------------------------| 
 
Chorus Rhythm = Eighth Notes 
G|-------------------------------------------| 
D|-------------------------------------------| 
A|-00000000--77777777--99999999--55555555----| 
E|-------------------------------------------| 
 
G|-------------------------------------------| 
D|-------------------------------------------| 
A|-00000000--77777777--55555555--55555555----| 
E|-------------------------------------------| 
 
Verse Rhythm = Quarter Notes 
OUT FIRST TIME THROUGH 
G|-------------------------------------------| 
D|-------------------------------------------| 
A|-0-0-0-0--4-4-4-4--5-5-5-5-5-5-5-5---------| 
E|-------------------------------------------| 
 
G|-------------------------------------------| 
D|-------------------------------------------| 
A|-9-9-9-9--7-7-7-7--5-5-5-5-5-5-5-5---------| 
E|-------------------------------------------| 
 
Pre-Chorus Rhythm = Quarter Notes 
G|-------------------------------------------| 
D|-------------------------------------------| 
A|-2-2-2-2--4-4-4-4--5-5-5-5--7-7-7-7--------| 
E|-------------------------------------------| 
 
G|-------------------------------------------| 
D|-------------------------------------------| 
A|-------------------5-5-5-5-5-5-5-5---------| 
E|-2-2-2-2--4-4-5-5--------------------------|

Chorus Rhythm = Eighth Notes 
G|-------------------------------------------| 
D|-------------------------------------------| 
A|-00000000--77777777--99999999--55555555----| 
E|-------------------------------------------| 
 
G|-------------------------------------------| 
D|-------------------------------------------| 
A|-00000000--77777777--55555555--55555555----| 
E|-------------------------------------------| 
 
Again 
G|-------------------------------------------| 
D|-------------------------------------------| 
A|-00000000--77777777--99999999--55555555----| 
E|-------------------------------------------| 
 
G|-------------------------------------------| 
D|-------------------------------------------| 
A|-00000000--77777777--55555555--55555555----| 
E|-------------------------------------------| 
 
Pre-Chorus Rhythm = Whole Notes 
G|-------------------------------------------| 
D|-------------------------------------------| 
A|-2--------4--------5--------7--------------| 
E|-------------------------------------------| 
 
G|-------------------------------------------| 
D|-4--------6----7---------------------------| 
A|-------------------55555555-55555777-------| 
E|-------------------------------------------| 
 
Chorus - Bass Out/ Rhythm = Eighth Notes 
G|-------------------------------------------| 
D|-------------------------------------------| 
A|-------------------------------------------| 
E|-------------------------------------------| 
 
G|-------------------------------------------| 
D|-------------------------------------------| 
A|---------------------55555555--55557777----| 
E|-------------------------------------------| 
 
Chorus Rhythm = Eighth Notes 
 
G|-------------------------------------------| 
D|-------------------------------------------| 
A|-00000000--77777777--99999999--55555555----| 
E|-------------------------------------------| 
 
G|-------------------------------------------| 
D|-------------------------------------------| 
A|-00000000--77777777--55555555--55555555----| 
E|-------------------------------------------| 
 
Again 
G|-------------------------------------------| 
D|-------------------------------------------| 
A|-00000000----------------------55555555----| 
E|-----------00000000--22222222--------------| 
 
G|-------------------------------------------| 
D|-------------------------------------------| 
A|-00000000------------55555555--55555555----| 
E|-----------00000000------------------------| 
 
 
Outro Rhythm = Driving Eighth Notes 
G|-------------------------------------------| 
D|-------------------------------------------| 
A|-00000000-44444444-55555555-5555-99-77-0~--| 
E|-------------------------------------------| 
^PLAY TWICE^ 

            
            
Suggest correction
Creating personal tab
Creating personal tab
You can edit any tab online and save it as your Personal.

You can edit, replace or remove any tab part or add personal notes – all changes will be seen only by you.

Personal tabs can be accessed anytime from any device, even offline.
Learn more »
Give kudos to tab author, rate the tab!
1 2 3 4 5
comments
print report bad tab
guest
You may want to rate the tab now too:
select rating
Wanna post a correction for this tab? Suggest correction