Oops, an error
Loading. Please wait.

Your Grace Is Enough tab

version 3
version 3

Whole song

Interactive

417 views 1 this week
no commentswrite comment
1 2 3 4 5
3 more votes to show rating
add to favorites
×
Save as Personal and add changes to this tab that will be seen only by you. Learn more ›
×
You can save this tab as Personal to edit and correct it or add notes. All changes will be seen only by you. Learn more »
launch autoscroll
font size
0
reset
how to read this tab
guitar tuner
edit
Autoscroll
slow
fast
+/-
esc
set tempo
stop
Author
-------------------------------------------------------------------------------
                        your grace is enough - chris tomlin
-------------------------------------------------------------------------------
Tabbed by:
E-mail:
key of G
Tuning:E-A-D-G-B-e

e|----------------------------------------------------------------------------|
B|----------------------------------------------------------------------------|
G|--0---2--------0--2--------0--0---0---2-------0----2------0-----0----0----2-|
D|----------4----------4-------------------4-------------4--------------------|
A|---------------2--------------3---------------2-----------------3-----------|
E|--3-------------------------------0----------------------------------3------|
  great is thy faithfulness oh God you wrestle with the sinners heart you lead
e|---------------------------------------------------------------------------|
B|---------------------------------------------------------------------------|
G|---0----2-------0---0------------0---2-------0---2------0--0---------------|
D|-4----------4----------4--2--0-----------4------------4--------------------|
A|---2----------------3-----3------------------2-------------3---------------|
E|---------------------------------0-----------------------------------------|
  us by still waters and to mercy and nothing can keep us apart
e|---------------------------------------------------------------------------------|
B|----------0--0-----1---0-------0---0-----1---0--------0--0------1---0-------0----|
G|-------0--------2---------2----------2----------2-0---------2----------2------0-0|
D|-----------------------0-----------2---------0----------------------0------------|
A|-------3-----0------------------------------------------------------------------3|
E|---------------------------------------------------------0-----------------------|
chorus: so remember your people remember your children remember your promise oh God
e|---------------------------------------------------------------------------|
B|-3-----3---1--0--------3----3----1--0------3-----3----1--0-----------------|
G|-----------------2--------------------0---------------------0--------------|
D|-----------------0------------------------------------------0--------------|
A|----------------------------2---------3------------------------------------|
E|-------3-----------------------------------------3-------------------------|
  your grace is enough your grace is enough your grace is enough for me

************************************

| /   slide up
| \   slide down
| h   hammer-on
| p   pull-off
| ~   vibrato
| +   harmonic
| x   Mute note
| b   Bend
| pb  Pre-bend
| br  Bend release
| pbr Pre-bend release
| brb Bend release bend

************************************

            
            
Suggest correction
Creating personal tab
Creating personal tab
You can edit any tab online and save it as your Personal.

You can edit, replace or remove any tab part or add personal notes – all changes will be seen only by you.

Personal tabs can be accessed anytime from any device, even offline.
Learn more »
Give kudos to tab author, rate the tab!
1 2 3 4 5
comments
print report bad tab
guest
You may want to rate the tab now too:
select rating
Wanna post a correction for this tab? Suggest correction