Oops, an error
Loading. Please wait.

Christie 1970 album bass

37 views 1 this week
no commentswrite comment
1 2 3 4 5
3 more votes to show rating
add to favorites
×
Save as Personal and add changes to this tab that will be seen only by you. Learn more ›
×
You can save this tab as Personal to edit and correct it or add notes. All changes will be seen only by you. Learn more »
launch autoscroll
font size
0
reset
guitar tuner
edit
Autoscroll
slow
fast
+/-
esc
set tempo
stop
--------------------------------------------------------------------------
                            Artist - Christie
                           *******************
                           Song - Yellow River
                          *********************
                         Album - Christie (1970)
                        *************************
                           Tabbed By - Ayreon77
                          **********************
                 https://www.youtube.com/watch?v=zGoHQ7c5I2I
                *********************************************
--------------------------------------------------------------------------
Tuning = Standard             



INTRO
******
G|--------|-------------------------------|
D|--------|-------------------------------|
A|-6-6--6-|-----6--6--6-----6-6--6------5-|
E|--------|-6-8---------6-8---------6-8---|


--------------------------------
00:06
VERSE 1
********
G|------------|------------|-------------------------|-------------------------|
D|------------|-5-----5----|----------3-4-5-----5----|----------5-4-3-----3----|
A|-6-----6----|----5-----5-|-3-----3---------5-----5-|-3-----3---------3-----3-|
E|----6-----6-|------------|----3--------------------|----3--------------------|


G|-------------------------|
D|-------------------------|
A|-----------------------s-|
E|-6--6--4--4--3--3--1--1\-|


--------------------------------
00:22
VERSE 2
********
G|------------|------------|-------------------------|-------------------------s-|
D|------------|-5-----5----|----------3-4-5-----5----|----------5-4-3-----3-3-3\-|
A|-6-----6----|----5-----5-|-3-----3---------5-----5-|-3-----3---------3---------|
E|----6-----6-|------------|----3--------------------|----3----------------------|


G|----------------------|
D|-8-8-8--6-6--5-5--3-3-|
A|----------------------|
E|----------------------|


--------------------------------
00:37
CHORUS
*******                                         s
G|------------|------------|--------------|---10\12-10--------s-|
D|------------|------------|-4-5-----5----|-8----------12-10-8\-|
A|-6-----6----|-6-----6----|------5-----5-|---------------------|
E|----6-----6-|----6-----6-|--------------|---------------------|


G|--------------|------------|--------------|------------|
D|--------------|------------|-4-5-----5----|-8-----8----|
A|-6-----6----5-|-6-----6----|------5-----5-|----8-----8-|
E|----6-----6---|----6-----6-|--------------|------------|


--------------------------------
00:53
BRIDGE
*******
G|------------|------------|------------|-------------------------|------------|
D|------------|------------|-3-----3----|-------------------------|------------|
A|-3-----3----|-1-----1----|----3-----3-|-1-----1--1-2-3-----3----|-3----------|
E|----3-----3-|----1-----1-|------------|----1------------3-----3-|----3--4--6-|


--------------------------------
01:05
VERSE 1
********
G|------------|------------|-------------------------|-------------------------|
D|------------|-5-----5----|----------3-4-5-----5----|----------5-4-3-----3----|
A|-6-----6----|----5-----5-|-3-----3---------5-----5-|-3-----3---------3-----3-|
E|----6-----6-|------------|----3--------------------|----3--------------------|


G|---------------------------|
D|---------------------------|
A|-------------------------s-|
E|-6-6-6--4-4-4--3--3--1--1\-|


--------------------------------
01:20
VERSE 2
********
G|------------|------------|-------------------------|-------------------------s-|
D|------------|-5-----5----|----------3-4-5-----5----|----------5-4-3-----3---3\-|
A|-6-----6----|----5-----5-|-3-----3---------5-----5-|-3-----3---------3---------|
E|----6-----6-|------------|----3--------------------|----3----------------------|


G|--------------------|
D|-8-8--6-6--5-5--3-3-|
A|--------------------|
E|--------------------|


--------------------------------
01:36
CHORUS
*******                                         s
G|------------|------------|--------------|---10\12-10--------s-|
D|------------|------------|-4-5-----5----|-8----------12-10-8\-|
A|-6-----6----|-6-----6----|------5-----5-|---------------------|
E|----6-----6-|----6-----6-|--------------|---------------------|


G|--------------|------------|--------------|------------|
D|--------------|------------|-4-5-----5----|-8-----8----|
A|-6-----6----5-|-6-----6----|------5-----5-|----8-----8-|
E|----6-----6---|----6-----6-|--------------|------------|


--------------------------------
00:52
BRIDGE
*******
G|------------|------------|------------|-------------------------|------------|
D|------------|------------|-3-----3----|-------------------------|------------|
A|-3-----3----|-1-----1----|----3-----3-|-1-----1--1-2-3-----3----|-3----------|
E|----3-----3-|----1-----1-|------------|----1------------3-----3-|----3--4--6-|


--------------------------------
02:03
CHORUS
*******                                         s
G|------------|------------|--------------|---10\12-10--------s-|
D|------------|------------|-4-5-----5----|-8----------12-10-8\-|
A|-6-----6----|-6-----6----|------5-----5-|---------------------|
E|----6-----6-|----6-----6-|--------------|---------------------|

                                                  s
G|--------------|------------|--------------|---10\12-10--------s-|
D|--------------|------------|-4-5-----5----|-8----------12-10-8\-|
A|-6-----6----5-|-6-----6----|------5-----5-|---------------------|
E|----6-----6---|----6-----6-|--------------|---------------------|


--------------------------------
02:19
BREAK
******
G|-------|-----------|-----------|-----------|
D|-------|-----------|-----------|-----------|
A|-6-6-6-|-----6-6-6-|-----6-6-6-|-----6-6-6-|
E|-------|-6-8-------|-6-8-------|-6-8-------|



ENJOY........



--------------------------------------------------------------------------
                          Artist - Christie
                         *******************
                        Song - Gotta Be Free
                       **********************
                       Album - Christie (1970)
                      *************************
                        Tabbed By - Ayreon77
                       **********************
--------------------------------------------------------------------------
Tuning = Standard             


INTRO
******                                    s
G|------------------------|--------------9\11-9------|
D|---------------s--------|---------------------11-9-|
A|-0--0-0--0--0-7\9-7-----|-0--0-0--0--0-------------|
E|--------------------9-7-|--------------------------|X2


---------------------
00:16
VERSE 1
********
G|--------|--------|------|---------|--------|--------|------|---------|
D|--------|--------|------|---------|--------|--------|------|---------|
A|--------|--------|------|-0-4-7---|--------|--------|------|-0-4-7---|
E|-5--5-5-|-5--5-5-|-5--7-|-------7-|-5--5-5-|-5--5-5-|-5--7-|-------7-|

00:31
G|--------|--------|----------|--------|-9--7--7-6--6-4-----|
D|------6-|------4-|--------6-|------4-|--------------------|
A|-4--4---|-2--2---|-4--4-4---|-2--2---|----------------7-7-|
E|--------|--------|----------|--------|--------------------|

00:45
G|------------------------------|---------------------------|
D|--h---h-----------------------|---------------------------|
A|-7-9-7-9-9---7-9--9-9--9-9--9-|-5-5-5-4-5-7--7-7--7-7-7-7-|
E|-----------9------------------|---------------------------|


---------------------
00:52
VERSE 2
********
G|--------|--------|------|---------|--------|--------|------|-------------|
D|--------|--------|------|---------|--------|--------|------|-----------9-|
A|--------|--------|------|-0-4-7---|--------|--------|------|-0-4-7---9---|
E|-5--5-5-|-5--5-5-|-5--7-|-------7-|-5--5-5-|-5--5-5-|-5--7-|-------7-----|

01:07
G|-----------|--------|-------------|--------|-9--7--7-6--6-4-----|
D|-11--11----|-9--9---|----11----11-|-9--9---|--------------------|
A|--------11-|------9-|-------11----|------9-|----------------7-7-|
E|-----------|--------|-9-----------|--------|--------------------|

01:20
G|------------------------------|---------------------------|
D|--h---h-----------------------|---------------------------|
A|-7-9-7-9-9---7-9--9-9--9-9--9-|-5-5-5-4-5-7--7-7--7-7-7-7-|
E|-----------9------------------|---------------------------|


---------------------
01:27
CHORUS
*******
G|-------------|-----10-----10-|-------------|-----10-----10-|
D|-----7-----7-|---------------|-----7-----7-|---------------|
A|-------------|-8-8----8-8----|-------------|-8-8----8-8----|
E|-5-5---5-5---|---------------|-5-5---5-5---|---------------|

01:35
G|--s--------|---------|--s--------|---------|---------------------------|
D|-5\7-5-----|-4-------|-5\7-5-----|-4-------|--h------------------------|
A|-------7-4-|---2-3-4-|-------7-4-|---2-3-4-|-5-7--7-5--5-4--4-5--0-7-7-|
E|-----------|---------|-----------|---------|---------------------------|


G|------------------------------|---------------------------|
D|--h---h-----------------------|---------------------------|
A|-7-9-7-9-9---7-9--9-9--9-9--9-|-5-5-5-4-5-7--7-7--7-7-7-7-|
E|-----------9------------------|---------------------------|


---------------------
01:55
VERSE 3
********
G|--------|--------|------|-------------|--------|--------|------|-------------|
D|--------|--------|------|-----------9-|--------|--------|------|-----------9-|
A|--------|--------|------|-0-4-7---9---|--------|--------|------|-0-4-7---9---|
E|-5--5-5-|-5-5--5-|-5--7-|-------7-----|-5--5-5-|-5--5-5-|-5--7-|-------7-----|


02:10
G|-----------|--------|-------------|--------|-9--7--7-6--6-4-----|
D|-11--11----|-9--9---|----11----11-|-9--9---|--------------------|
A|--------11-|------9-|-------11----|------9-|----------------7-7-|
E|-----------|--------|-9-----------|--------|--------------------|

02:23
G|-------------------------------|-----------------------------|
D|--h---h------------------------|-----------------h-----------|
A|-7-9-7-9-9---7-9--9-9--9-9-9-9-|-8-8-8---6-8--8-6-8--8-8-8-8-|
E|-----------9-------------------|-------8---------------------|

02:31
G|-----------|--------|--------------4--4---|
D|---7-----7-|--------|----------4-7------4-|
A|-0---0-0---|--------|-0--0-4-7------------|
E|-----------|-7--7-7-|---------------------|


G|--------|--------|--------------4--4---|
D|--------|--------|----------4-7------4-|
A|-0--0-0-|--------|-0--0-4-7------------|
E|--------|-7--7-7-|---------------------|X5

                    Fade Out..............


ENJOY........



--------------------------------------------------------------------------
                          Artist - Christie
                         *******************
                      Song - I've Got A Feeling
                     ***************************
                       Album - Christie (1970)
                      *************************
                        Tabbed By - Ayreon77
                       **********************
--------------------------------------------------------------------------
Tuning = Standard             


INTRO
******
G|-----------4-5-5-5-5-4---------------------------|
D|-5-5-5-5-7-------------7-5-5-5-5-4---------------|
A|-----------------------------------7-5-5-5-5-5-5-|
E|-------------------------------------------------|


----------------------
00:06
CHORUS
*******
G|--s---4-7--4-7-|-------------|--s---4-7--4-7-|---------------|
D|-4\5-----------|----4-7--4-7-|-4\5-----------|-----s--5----5-|
A|---------------|-5-----------|---------------|-3--5\7----7---|
E|---------------|-------------|---------------|---------------|


G|--s-----------------|
D|-4\5--5-6--6-7--8---|
A|------------------5-|
E|--------------------|


----------------------
00:26
BREAK
******
G|-----------4-5-5-5-5-4---------------------------|
D|-5-5-5-5-7-------------7-5-5-5-5-4---------------|
A|-----------------------------------7-5-5-5-5-5-5-|
E|-------------------------------------------------|


----------------------
00:32
CHORUS
*******
G|--s---4-7--4-7-|-------------|--s---4-7--4-7-|---------------|
D|-4\5-----------|----4-7--4-7-|-4\5-----------|-----s--5----5-|
A|---------------|-5-----------|---------------|-3--5\7----7---|
E|---------------|-------------|---------------|---------------|


G|--s-----------------|-------|
D|-4\5--5-6--6-7--8---|-----4-|
A|------------------5-|-5-7---|
E|--------------------|-------|


----------------------
00:52
BREAK
******
G|-----------4-5-5-5-5-4----------------s-------s------|
D|-5-5-5-5-7-------------7-5-5-5-5-5-5-4\5-5-5-4\5-----|
A|-------------------------------------------------7-5-|
E|-----------------------------------------------------|


----------------------
00:58
BRIDGE
*******
G|----------------------------------|--s----s-------------s----s----s---------|
D|------s--5----5------s--5--5----5-|-4\5--4\5---------4-4\5--4\5--4\5--5-----|
A|-3~~-5\7----7---4~~-5\7------7----|-----------5--5-7--------------------7-5-|
E|----------------------------------|-----------------------------------------|


G|--------------------------------|
D|--------------------------------|
A|--------7-----7-------s--7----7-|
E|-5~~--9-----9----5~~-7\9----9---|


G|-------------|---------------|-----------------|-------------|
D|-------------|--s------------|--s-------s------|-------------|
A|-5-5-5-5-5-5-|-4\5-5-5-5-5-5-|-4\5-5-5-4\5-5-5-|-5-7-5-------|
E|-------------|---------------|-----------------|-------8-7-5-|


----------------------
01:24
CHORUS
*******
G|--s---4-7--4-7-|-------------|--s---4-7--4-7-|---------------|
D|-4\5-----------|----4-7--4-7-|-4\5-----------|-----s--5----5-|
A|---------------|-5-----------|---------------|-3--5\7----7---|
E|---------------|-------------|---------------|---------------|


G|--s-----------------|
D|-4\5--5-6--6-7--8---|
A|------------------5-|
E|--------------------|


----------------------
01:44
BREAK
******
G|-----------4-5-5-5-5-4----------------s-------s------|
D|-5-5-5-5-7-------------7-5-5-5-5-5-5-4\5-5-5-4\5-----|
A|-------------------------------------------------7-5-|
E|-----------------------------------------------------|


----------------------
01:51
BRIDGE
*******
G|----------------------------------|--s----s-------------s----s----s---------|
D|------s--5----5------s--5--5----5-|-4\5--4\5---------4-4\5--4\5--4\5--5-----|
A|-3~~-5\7----7---4~~-5\7------7----|-----------5--5-7--------------------7-5-|
E|----------------------------------|-----------------------------------------|


G|--------------------------------|
D|--------------------------------|
A|--------7-----7-------s--7----7-|
E|-5~~--9-----9----5~~-7\9----9---|


G|-------------|---------------|-----------------|-------------|
D|-------------|--s------------|--s-------s------|-------------|
A|-5-5-5-5-5-5-|-4\5-5-5-5-5-5-|-4\5-5-5-4\5-5-5-|-5-7-5-------|
E|-------------|---------------|-----------------|-------8-7-5-|


----------------------
02:17
CHORUS
*******
G|--s---4-7--4-7-|-------------|--s---4-7--4-7-|---------------|
D|-4\5-----------|----4-7--4-7-|-4\5-----------|-----s--5----5-|
A|---------------|-5-----------|---------------|-3--5\7----7---|
E|---------------|-------------|---------------|---------------|


G|--s-----------------|-------|
D|-4\5--5-6--6-7--8---|-----4-|
A|------------------5-|-5-7---|
E|--------------------|-------|


----------------------
00:52
OUTRO
******
G|-----------4-5-5-5-5-4--------------|
D|-5-5-5-5-7-------------7-5--6-5~~~~-|
A|------------------------------------|
E|------------------------------------|



ENJOY...........



--------------------------------------------------------------------------
                          Artist - Christie
                         *******************
                        Song - New York City
                       **********************
                       Album - Christie (1970)
                      *************************
                        Tabbed By - Ayreon77
                       **********************
--------------------------------------------------------------------------
Tuning = Standard             


INTRO
******
G|-----------------------|
D|-----6-7~~~-----6-7~~~-|
A|-7-9--------7-9--------|
E|-----------------------|


G|-----------------------------|-----------------------------|
D|-----6-7-7---7--7---7--7---7-|-----6-7-7---7--7---7--7---7-|
A|-7-9-------9------9------9---|-7-9-------9------9------9---|
E|-----------------------------|-----------------------------|


G|-----------------------------|-----------------------------|
D|-----6-7-7---7--7---7--7---7-|-----6-7-7---7--7---7--7---7-|
A|-7-9-------9------9------9---|-7-9-------9------9------9---|
E|-----------------------------|-----------------------------|


---------------------------
00:23
VERSE 1
********
G|------------------------------------|----------------|----------------|
D|-----6-7-7---7--7---7--7---7--7---7-|----------------|-7-7---7--7---7-|
A|-7-9-------9------9------9------9---|-7-7---7--7---7-|-----9------9---|
E|------------------------------------|-----9------9---|----------------|


G|------------------------------|----------------|----------------|
D|-7-7---7--7---7--7---7--7---7-|----------------|-7-7---7--7---7-|
A|-----9------9------9------9---|-7-7---7--7---7-|-----9------9---|
E|------------------------------|-----9------9---|----------------|

00:38
G|----------------|----------------|----------------|----------------|
D|----------------|-7-7---7--7---7-|----------------|-7-7---7--7---7-|
A|-7-7---7--7---7-|-----9------9---|-7-7---7--7---7-|-----9------9---|
E|-----9------9---|----------------|-----9------9---|----------------|


G|----------------|----------------|------------|
D|----------------|-7-7---7--7---7-|-5~~~-------|
A|-7-7---7--7---7-|-----9------9---|-------5~~~-|
E|-----9------9---|----------------|------------|


---------------------------
00:52
BREAK
******
G|-------------------------|-----------------------------|
D|-5-7-7---7--7---7--7---7-|-----6-7-7---7--7---7--7---7-|
A|-------9------9------9---|-7-9-------9------9------9---|
E|-------------------------|-----------------------------|


---------------------------
00:58
VERSE 2
********
G|------------------------------------|----------------|----------------|
D|-----6-7-7---7--7---7--7---7--7---7-|----------------|-7-7---7--7---7-|
A|-7-9-------9------9------9------9---|-7-7---7--7---7-|-----9------9---|
E|------------------------------------|-----9------9---|----------------|


G|------------------------------|----------------|----------------|
D|-7-7---7--7---7--7---7--7---7-|----------------|-7-7---7--7---7-|
A|-----9------9------9------9---|-7-7---7--7---7-|-----9------9---|
E|------------------------------|-----9------9---|----------------|

01:13
G|----------------|----------------|----------------|----------------|
D|----------------|-7-7---7--7---7-|----------------|-7-7---7--7---7-|
A|-7-7---7--7---7-|-----9------9---|-7-7---7--7---7-|-----9------9---|
E|-----9------9---|----------------|-----9------9---|----------------|


G|----------------|----------------|------------|
D|----------------|-7-7---7--7---7-|-5~~~-------|
A|-7-7---7--7---7-|-----9------9---|-------5~~~-|
E|-----9------9---|----------------|------------|


---------------------------
01:27
BREAK
******
G|-----------------------|-----------------------------|-----|
D|-7-7---7--7---7--7---7-|-----6-7-7---7--7---7--7---7-|-----|
A|-----9------9------9---|-7-9-------9------9------9---|-7-9-|
E|-----------------------|-----------------------------|-----|


---------------------------
01:34
CHORUS
*******
G|---------------|---------------|--------------------------------|
D|-7-7---7--7--7-|---------------|-7-7---7--7---7--7-7---7--7---7-|
A|-----9---------|-7-7--7--7-9-7-|-----9------9--------9------9---|
E|---------------|---------------|--------------------------------|


G|----------------|----------------|--------------------------------|
D|-7-7---7--7-6---|--------------6-|-7-7---7--7---7--7-7---7--7-----|
A|-----9--------9-|-7-7---7--7-9---|-----9------9--------9------9-7-|
E|----------------|-----9----------|--------------------------------|

01:48
G|------------------------|----------------------------------|
D|------------------------|-----------------------5~~~-------|
A|-5~~~--------7~~~-------|-5--5--5--5------------------5~~~-|
E|-------5~~~--------5~~~-|------------5--5--5--5------------|


---------------------------
02:02
BREAK
******
G|-----------------------|-----------------------------|-----|
D|-7-7---7--7---7--7---7-|-----6-7-7---7--7---7--7---7-|-----|
A|-----9------9------9---|-7-9-------9------9------9---|-9-7-|
E|-----------------------|-----------------------------|-----|


G|-----------------------|------------------------------------|
D|-7-7---7--7---7--7---7-|-----6-7-7---7--7---7--7---7--7---7-|
A|-----9------9------9---|-7-9-------9------9------9------9---|
E|-----------------------|------------------------------------|


---------------------------
02:16
BRIDGE
*******
G|----------------|----------------|----------------|----------------|
D|----------------|-7-7---7--7---7-|----------------|-7-7---7--7---7-|
A|-7-7---7--7---7-|-----9------9---|-7-7---7--7---7-|-----9------9---|
E|-----9------9---|----------------|-----9------9---|----------------|


G|----------------|----------------|------------|
D|----------------|-7-7---7--7---7-|-5~~~-------|
A|-7-7---7--7---7-|-----9------9---|-------5~~~-|
E|-----9------9---|----------------|------------|


---------------------------
02:29
BREAK
******
G|-----------------------|------------------------------------|
D|-7-7---7--7---7--7---7-|-----6-7-7---7--7---7--7---7--7---7-|
A|-----9------9------9---|-7-9-------9------9------9------9---|
E|-----------------------|------------------------------------|


---------------------------
02:36
CHORUS
*******
G|----------------|----------------|--------------------------------|
D|-7-7---7--7-6---|--------------6-|-7-7---7--7---7--7-7---7------6-|
A|-----9--------9-|-7-7---7--7-9---|-----9------9--------9----7-9---|
E|----------------|-----9----------|--------------------------------|


G|----------------|----------------|--------------------------------|
D|-7-7---7--7-6---|--------------6-|-7-7---7--7---7--7-7---7------6-|
A|-----9--------9-|-7-7---7--7-9---|-----9------9--------9----7-9---|
E|----------------|-----9----------|--------------------------------|

02:50
G|----------------|----------------|----------------|----------------|
D|-7-7---7--7-6---|--------------6-|-7-7---7--7-6---|--------------6-|
A|-----9--------9-|-7-7---7--7-9---|-----9--------9-|-7-7---7--7-9---|
E|----------------|-----9----------|----------------|-----9----------|


G|----------------|----------------|-----------------------------|
D|-7-7---7--7---7-|--------------6-|-7-7---7--7---7--------------|
A|-----9------9---|-7-7---7--7-9---|-----9------9---9-7----------|
E|----------------|-----9----------|--------------------9---5~~~-|



ENJOY...............



--------------------------------------------------------------------------
                          Artist - Christie
                         *******************
                      Song - Inside Looking Out
                     ***************************
                       Album - Christie (1970)
                      *************************
                        Tabbed By - Ayreon77
                       **********************
--------------------------------------------------------------------------
Tuning = Standard             


00:03
INTRO
******
G|------------|------------|------------|----------------|
D|-------5----|-------5----|-------5----|----------------|
A|-7--------5-|-7--------5-|-7--------5-|-7-----7----4-6-|
E|----7-------|----7-------|----7-------|----7-----7-----|


--------------------------
00:13
VERSE 1
********
G|-------------------------------|------------------------------|
D|-------------------------------|------------------------------|
A|-7------7------7------7----4-6-|-7------7------7------7-5-4---|
E|----7------7------7------7-----|----7------7------7---------7-|


G|------------------------|--------------------------|
D|-------7-----------7--6-|-4------4------4-----4----|
A|----7-----7-----7-------|----4------4------4-----4-|
E|-5-----------5----------|--------------------------|


--------------------------
00:33
CHORUS
*******
G|-4-4-4-------------------|
D|--------7--7--6--6--4--4-|
A|-------------------------|
E|-------------------------|


--------------------------
00:38
BREAK
******
G|------------|------------|------------|------------|
D|-------5----|-------5----|-------5----|------------|
A|-7--------5-|-7--------5-|-7--------5-|-7-----7----|
E|----7-------|----7-------|----7-------|----7-----7-|


--------------------------
00:48
BRIDGE
*******
G|------------------------|------------------------------------|
D|-7-----7-----9-----9----|-6-----7-----9--9--7--7--6--6--4--4-|
A|----7-----7-----9-----9-|----6-----7-------------------------|
E|------------------------|------------------------------------|


--------------------------
01:00
VERSE 2
********
G|-------------------------------|------------------------------|
D|-------------------------------|------------------------------|
A|-7------7------7------7----4-6-|-7------7------7------7-5-4---|
E|----7------7------7------7-----|----7------7------7---------7-|


G|------------------------|--------------------------|
D|-------7-----------7--6-|-4------4------4-----4----|
A|----7-----7-----7-------|----4------4------4-----4-|
E|-5-----------5----------|--------------------------|


--------------------------
01:20
CHORUS
*******
G|-4-4-4-------------------|
D|--------7--7--6--6--4--4-|
A|-------------------------|
E|-------------------------|


--------------------------
01:25
BREAK
******
G|------------|------------|------------|------------|
D|-------5----|-------5----|-------5----|------------|
A|-7--------5-|-7--------5-|-7--------5-|-7-----7----|
E|----7-------|----7-------|----7-------|----7-----7-|


--------------------------
01:35
BRIDGE
*******
G|------------------------|------------------------------------|
D|-7-----7-----9-----9----|-6-----7-----9--9--7--7--6--6--4--4-|
A|----7-----7-----9-----9-|----6-----7-------------------------|
E|------------------------|------------------------------------|


--------------------------
01:48
VERSE 3
********
G|-------------------------------|------------------------------|
D|-------------------------------|------------------------------|
A|-7------7------7------7----4-6-|-7------7------7------7-5-4---|
E|----7------7------7------7-----|----7------7------7---------7-|


G|------------------------|--------------------------|
D|-------7-----------7--6-|-4------4------4-----4----|
A|----7-----7-----7-------|----4------4------4-----4-|
E|-5-----------5----------|--------------------------|


--------------------------
02:07
CHORUS
*******
G|-4-4-4-------------------|
D|--------7--7--6--6--4--4-|
A|-------------------------|
E|-------------------------|


--------------------------
02:12
BREAK
******
G|------------|------------|------------|------------|
D|-------5----|-------5----|-------5----|------------|
A|-7--------5-|-7--------5-|-7--------5-|-7-----7----|
E|----7-------|----7-------|----7-------|----7-----7-|


--------------------------
02:22
CHORUS
*******
G|-4-4-4-------------------|
D|--------7--7--6--6--4--4-|
A|-------------------------|
E|-------------------------|


--------------------------
02:27
OUTRO
******
G|------------|------------|------------|-----------------|
D|-------5----|-------5----|-------5----|-----------------|
A|-7--------5-|-7--------5-|-7--------5-|-7-----7----7~~~-|
E|----7-------|----7-------|----7-------|----7-----7------|



ENJOY..........



--------------------------------------------------------------------------
                          Artist - Christie
                         *******************
                      Song - Put Your Money Down
                     ****************************
                       Album - Christie (1970)
                      *************************
                        Tabbed By - Ayreon77
                       **********************
--------------------------------------------------------------------------
Tuning = Standard             


INTRO
******
G|-----------2-0---2-0-----|-----------2-0---2-0-----|
D|---------2-----4-----4-2-|---------2-----4-----4-2-|
A|-0-0-3-4-----------------|-0-0-3-4-----------------|
E|-------------------------|-------------------------|


G|-----------------------------|-----------------------------|
D|-----7-----7-----7-----------|-----7-----7-----7-----------|
A|-0-0---0-0---0-0---0-4-5-6-7-|-0-0---0-0---0-0---0-4-5-6-7-|
E|-----------------------------|-----------------------------|


-----------------------
00:12
VERSE 1
********
G|-------------------------|-----------------9-9-----9-9-|
D|-----7-----7-----7-----7-|-----7-----7-----------------|
A|-0-0---0-0---0-0---0-0---|-0-0---0-0---7-7-----7-7-----|
E|-------------------------|-----------------------------|


G|-------------------------|-----9-9-----9-9-|-------------|
D|-----7-----7-----7-----7-|-----------------|-----7-----7-|
A|-0-0---0-0---0-0---0-0---|-7-7-----7-7-----|-0-0---0-0---|
E|-------------------------|-----------------|-------------|

00:23
G|-----------------|-----------------|-----------------|-----------------|
D|-----------------|-----------------|-0-0-------------|-0-0-------------|
A|-8-8-5-5-----5-5-|-8-8-5-5-----5-5-|-----2-2-0-0-2-2-|-----2-2-0-0-2-2-|
E|---------8-8-----|---------8-8-----|-----------------|-----------------|


G|-0-0-----------0--0-----------|-------------------------|
D|-----2-2-0-0-2------2-2-0-0-2-|-2-2--------2-2----------|
A|------------------------------|-----4--2-4-----4--2-2-4-|
E|------------------------------|-------------------------|


-----------------------
00:35
BREAK
******
G|-------------------|
D|---------------2-2-|
A|-----------2-3-----|
E|-0--0--2-3---------|


-----------------------
00:38
CHORUS
*******
G|------------------------------------|------------------------------------|
D|-----7-7------7-7------7-7------7-7-|--h--------h--------h--------h------|
A|-0-0------0-0------0-0------0-0-----|-3-5-5-5--3-5-5-5--3-5-5-5--3-5-5-5-|
E|------------------------------------|------------------------------------|


G|------------------------------------|------------------------------------|
D|-----7-7------7-7------7-7------7-7-|--h--------h--------h--------h------|
A|-0-0------0-0------0-0------0-0-----|-5-7-7-7--5-7-7-7--5-7-7-7--5-7-7-7-|
E|------------------------------------|------------------------------------|


G|------------------------------------|------------------------------------|
D|-----7-7------7-7------7-7------7-7-|--h--------h--------h--------h------|
A|-0-0------0-0------0-0------0-0-----|-3-5-5-5--3-5-5-5--3-5-5-5--3-5-5-5-|
E|------------------------------------|------------------------------------|

00:56
G|-----------------|-----9-9---------------------------------|
D|-----------------|-------------7-7-----7-5-----------------|
A|-0-0-3-5-7-7-5-3-|-7-7-----0-0-----0-0-----7-5-3-2-0-----0-|
E|-----------------|-----------------------------------0-3---|


-----------------------
01:01
BREAK
******
G|-----------2-0---2-0-----|-----------2-0---2-0-----|
D|---------2-----4-----4-2-|---------2-----4-----4-2-|
A|-0-0-3-4-----------------|-0-0-3-4-----------------|
E|-------------------------|-------------------------|


G|-----------------------------|-----------------------------|
D|-----7-----7-----7-----------|-----7-----7-----7-----------|
A|-0-0---0-0---0-0---0-4-5-6-7-|-0-0---0-0---0-0---0-4-5-6-7-|
E|-----------------------------|-----------------------------|


-----------------------
01:13
VERSE 2
********
G|-------------------------|-----------------9-9-----9-9-|
D|-----7-----7-----7-----7-|-----7-----7-----------------|
A|-0-0---0-0---0-0---0-0---|-0-0---0-0---7-7-----7-7-----|
E|-------------------------|-----------------------------|


G|-------------------------|-----9-9-----9-9-|-------------|
D|-----7-----7-----7-----7-|-----------------|-----7-----7-|
A|-0-0---0-0---0-0---0-0---|-7-7-----7-7-----|-0-0---0-0---|
E|-------------------------|-----------------|-------------|

01:25
G|-----------------|-----------------|-----------------|-----------------|
D|-----------------|-----------------|-0-0-------------|-0-0-------------|
A|-8-8-5-5-----5-5-|-8-8-5-5-----5-5-|-----2-2-0-0-2-2-|-----2-2-0-0-2-2-|
E|---------8-8-----|---------8-8-----|-----------------|-----------------|


G|-0-0-----------0--0-----------|-------------------------|
D|-----2-2-0-0-2------2-2-0-0-2-|-2-2--------2-2----------|
A|------------------------------|-----4--2-4-----4--2-2-4-|
E|------------------------------|-------------------------|


-----------------------
01:37
BREAK
******
G|-------------------|
D|---------------2-2-|
A|-----------2-3-----|
E|-0--0--2-3---------|


-----------------------
01:40
CHORUS
*******
G|------------------------------------|------------------------------------|
D|-----7-7------7-7------7-7------7-7-|--h--------h--------h--------h------|
A|-0-0------0-0------0-0------0-0-----|-3-5-5-5--3-5-5-5--3-5-5-5--3-5-5-5-|
E|------------------------------------|------------------------------------|


G|------------------------------------|------------------------------------|
D|-----7-7------7-7------7-7------7-7-|--h--------h--------h--------h------|
A|-0-0------0-0------0-0------0-0-----|-5-7-7-7--5-7-7-7--5-7-7-7--5-7-7-7-|
E|------------------------------------|------------------------------------|


G|------------------------------------|------------------------------------|
D|-----7-7------7-7------7-7------7-7-|--h--------h--------h--------h------|
A|-0-0------0-0------0-0------0-0-----|-3-5-5-5--3-5-5-5--3-5-5-5--3-5-5-5-|
E|------------------------------------|------------------------------------|

01:57
G|-----------------|-----9-9---------------------------------|
D|-----------------|-------------7-7-----7-5-----------------|
A|-0-0-3-5-7-7-5-3-|-7-7-----0-0-----0-0-----7-5-3-2-0-----0-|
E|-----------------|-----------------------------------0-3---|


-----------------------
02:03
CHORUS
*******
G|------------------------------------|------------------------------------|
D|-----7-7------7-7------7-7------7-7-|--h--------h--------h--------h------|
A|-0-0------0-0------0-0------0-0-----|-3-5-5-5--3-5-5-5--3-5-5-5--3-5-5-5-|
E|------------------------------------|------------------------------------|


G|------------------------------------|------------------------------------|
D|-----7-7------7-7------7-7------7-7-|--h--------h--------h--------h------|
A|-0-0------0-0------0-0------0-0-----|-5-7-7-7--5-7-7-7--5-7-7-7--5-7-7-7-|
E|------------------------------------|------------------------------------|


G|------------------------------------|------------------------------------|
D|-----7-7------7-7------7-7------7-7-|--h--------h--------h--------h------|
A|-0-0------0-0------0-0------0-0-----|-3-5-5-5--3-5-5-5--3-5-5-5--3-5-5-5-|
E|------------------------------------|------------------------------------|

02:21
G|-----------------|-----9-9---------------------------------|
D|-----------------|-------------7-7-----7-5-----------------|
A|-0-0-3-5-7-7-5-3-|-7-7-----0-0-----0-0-----7-5-3-2-0-----0-|
E|-----------------|-----------------------------------0-3---|X3



ENJOY........



--------------------------------------------------------------------------
                          Artist - Christie
                         *******************
                        Song - San Bernadino
                       **********************
                       Album - Christie (1970)
                      *************************
                        Tabbed By - Ayreon77
                       **********************
--------------------------------------------------------------------------
Tuning = Standard             


INTRO
******
G|------------------------|------------------------|---------------------------|
D|------------------------|------------------------|---------------------------|
A|-6~~~~-6~~~~-6-6--6-----|-6-----6-----6-----6----|-6-----6-----6-----6---3-5-|
E|--------------------8-6-|----6-----6-----6-----6-|----6-----6-----6----6-----|


---------------------
00:15
VERSE 1
********
G|------------|------------|------------|------------|
D|-------5----|----5--5----|-------5----|-6-----8----|
A|-6--------5-|-3--------5-|-6--------5-|----6-----8-|
E|----6-------|------------|----6-------|------------|


G|------------|------------|------------------------|
D|----5-----5-|-5-----5----|-8--8--6--6--5--5-------|
A|-3-----3----|----5-----5-|-------------------8--8-|
E|------------|------------|------------------------|

00:34
G|---------------------------|
D|---------------------------|
A|-6-----6-----6-----6---3-5-|
E|----6-----6-----6----6-----|


---------------------
00:39
VERSE 2
********
G|------------|------------|------------|------------|
D|-------5----|----5--5----|-------5----|-6-----8----|
A|-6--------5-|-3--------5-|-6--------5-|----6-----8-|
E|----6-------|------------|----6-------|------------|


G|------------|------------|------------------------|
D|----5-----5-|-5-----5----|-8--8--6--6--5--5-------|
A|-3-----3----|----5-----5-|-------------------8--8-|
E|------------|------------|------------------------|

00:59
G|-----------s---------|-----------s---------|
D|----------8\10-8---s-|----------8\10-8---s-|
A|-6-----6---------10\-|-6-----6---------10\-|
E|----6----------------|----6----------------|

G|-----------s---------|---------------|
D|----------8\10-8---s-|---------------|
A|-6-----6---------10\-|-6-----6---3-5-|
E|----6----------------|----6----6-----|


---------------------
01:09
CHORUS
*******
G|---------------|------------|---------------------------|
D|---------------|------------|---------------------------|
A|-6-----6-6-5-3-|----8-----8-|-6-----6-----6-----6-6-5-4-|
E|----6----------|-6-----6----|----6-----6-----6----------|


G|------------|-------------3---------|---------|---------|-------|
D|----5-----5-|-5-----5---s----s--3---|--s--3---|--s--3---|--s--3-|
A|-3-----3----|----5-----5\---3\5-----|-3\5-----|-3\5-----|-3\5---|
E|------------|---------------------4-|-------3-|-------2-|-------|


---------------------
01:28
VERSE 3
********
G|------------|------------|------------|------------|
D|-------5----|----5--5----|-------5----|-6-----8----|
A|-6--------5-|-3--------5-|-6--------5-|----6-----8-|
E|----6-------|------------|----6-------|------------|


G|------------|------------|------------------------|
D|----5-----5-|-5-----5----|-8--8--6--6--5--5-------|
A|-3-----3----|----5-----5-|-------------------8--8-|
E|------------|------------|------------------------|


01:47
G|---------------------------|
D|---------------------------|
A|-6-----6-----6-----6---3-5-|
E|----6-----6-----6----6-----|


---------------------
01:52
VERSE 4
********
G|------------|------------|------------|------------|
D|-------5----|----5--5----|-------5----|-6-----8----|
A|-6--------5-|-3--------5-|-6--------5-|----6-----8-|
E|----6-------|------------|----6-------|------------|


G|------------|------------|------------------------|
D|----5-----5-|-5-----5----|-8--8--6--6--5--5-------|
A|-3-----3----|----5-----5-|-------------------8--8-|
E|------------|------------|------------------------|

02:12
G|-----------s---------|-----------s---------|
D|----------8\10-8---s-|----------8\10-8---s-|
A|-6-----6---------10\-|-6-----6---------10\-|
E|----6----------------|----6----------------|

G|-----------s---------|---------------|
D|----------8\10-8---s-|---------------|
A|-6-----6---------10\-|-6-----6---3-5-|
E|----6----------------|----6----6-----|


---------------------
02:22
CHORUS
*******
G|---------------|------------|---------------------------|
D|---------------|------------|---------------------------|
A|-6-----6-6-5-3-|----8-----8-|-6-----6-----6-----6-6-5-4-|
E|----6----------|-6-----6----|----6-----6-----6----------|


G|------------|-------------3---------|---------|---------|------------|------|
D|----5-----5-|-5-----5---s----s--3---|--s--3---|--s--3---|--s--3------|------|
A|-3-----3----|----5-----5\---3\5-----|-3\5-----|-3\5-----|-3\5---6~~~-|-6~~~-|
E|------------|---------------------4-|-------3-|-------2-|------------|------|


---------------------
02:45
OUTRO
******
G|------------|------------------------|-----------------------s---------|
D|------------|------------------------|----------------------8\10-8---s-|
A|-6-6--6-----|-6-----6-----6-----6----|-6-----6-----6-----6---------10\-|
E|--------8-6-|----6-----6-----6-----6-|----6-----6-----6----------------|

          Fade Out.................
G|-----------------------s---------|
D|----------------------8\10-8---s-|
A|-6-----6-----6-----6---------10\-|
E|----6-----6-----6----------------|



ENJOY.........



--------------------------------------------------------------------------
                          Artist - Christie
                         *******************
                          Song - Country Boy
                         ********************
                       Album - Christie (1970)
                      *************************
                        Tabbed By - Ayreon77
                       **********************
--------------------------------------------------------------------------
Tuning = Standard             


INTRO
******
G|---------------------|---------------------|---------------------|---------------------|---|
D|------2--2------4--4-|------2--2------4--4-|------2--2------4--4-|------2--2------4--4-|---|
A|-4--4------2--2------|-4--4------2--2------|-4--4------2--2------|-4--4------2--2------|---|
E|---------------------|---------------------|---------------------|---------------------|-4-|


-----------------------
00:19
VERSE 1
********
G|---------------------|---------------------|---------------------|---------------------|
D|------4--4------4--4-|------4--4------4--4-|------4--4------4--4-|------4--4------4--4-|
A|-4--4------4--4------|-4--4------4--4------|-4--4------4--4------|-4--4------4--4------|
E|---------------------|---------------------|---------------------|---------------------|


-----------------------
00:35
CHORUS
*******
G|----------------------|---------------------------|
D|-----------7--7--7--7-|-----------6-6-6-6-6-6-6-6-|
A|------7--7------------|------6--6-----------------|
E|-5--5-----------------|-4--4----------------------|


-----------------------
00:43
BREAK
******
G|---------------------|---------------------|
D|------2--2------4--4-|------2--2------4--4-|
A|-4--4------2--2------|-4--4------2--2------|
E|---------------------|---------------------|


-----------------------
00:50
VERSE 2
********
G|------------------------|------------------------|------------------------|------------------------|
D|------4--4------4-4-3---|------4--4------4-4-3---|------4--4------4-4-3---|------4--4------4-4-3---|
A|-4--4------4--4-------6-|-4--4------4--4-------6-|-4--4------4--4-------6-|-4--4------4--4-------6-|
E|------------------------|------------------------|------------------------|------------------------|


-----------------------
01:06
CHORUS
*******
G|----------------------|---------------------------|
D|-----------7--7--7--7-|-----------6-6-6-6-6-6-6-6-|
A|------7--7------------|------6--6-----------------|
E|-5--5-----------------|-4--4----------------------|


-----------------------
01:14
BREAK
******
G|---------------------|---------------------|
D|------2--2------4--4-|------2--2------4--4-|
A|-4--4------2--2------|-4--4------2--2------|
E|---------------------|---------------------|


-----------------------
01:22
SOLO
*****
G|------------|
D|------4-----|
A|-4--4---7-5-|
E|------------|X8


G|----------------------|---------------------------|
D|-----------7--7--7--7-|-----------6-6-6-6-6-6-6-6-|
A|------7--7------------|------6--6-----------------|
E|-5--5-----------------|-4--4----------------------|


-----------------------
01:45
BREAK
******
G|---------------------|---------------------|
D|------2--2------4--4-|------2--2------4--4-|
A|-4--4------2--2------|-4--4------2--2------|
E|---------------------|---------------------|


01:53
VERSE 3
********
G|------------------------|------------------------|------------------------|------------------------|
D|------4--4------4-4-3---|------4--4------4-4-3---|------4--4------4-4-3---|------4--4------4-4-3---|
A|-4--4------4--4-------6-|-4--4------4--4-------6-|-4--4------4--4-------6-|-4--4------4--4-------6-|
E|------------------------|------------------------|------------------------|------------------------|


-----------------------
02:08
CHORUS
*******
G|----------------------|---------------------------|
D|-----------7--7--7--7-|-----------6-6-6-6-6-6-6-6-|
A|------7--7------------|------6--6-----------------|
E|-5--5-----------------|-4--4----------------------|


-----------------------
02:16
BREAK
******
G|---------------------|---------------------|---------------------|---------------------|---|
D|------2--2------4--4-|------2--2------4--4-|------2--2------4--4-|------2--2------4--4-|---|
A|-4--4------2--2------|-4--4------2--2------|-4--4------2--2------|-4--4------2--2------|-4-|
E|---------------------|---------------------|---------------------|---------------------|---|



ENJOY.............



--------------------------------------------------------------------------
                          Artist - Christie
                         *******************
                        Song - Johnny One Time
                       ************************
                       Album - Christie (1970)
                      *************************
                        Tabbed By - Ayreon77
                       **********************
--------------------------------------------------------------------------
Tuning = Standard             


INTRO
******
G|-------------|-------------|
D|-------------|-------------|
A|-5~~-3~~-0~~-|-5~~-3~~-0~~-|
E|-------------|-------------|

00:10
G|-------------------|-------------------|-------------------|------------------|
D|-------------------|-------------------|-------------------|------------------|
A|-0--0-0---0--0-5-3-|-0--0-0---0--0-5-3-|-0--0-0---0--0-5-3-|-0--0-0---0-0-5-3-|
E|-------------------|-------------------|-------------------|------------------|


-------------------------
00:26
VERSE 1
********
G|----------------------------|---------------------------------------|
D|----------------------------|---------------------------------------|
A|-0--0-0---0--0-0---0--0-5-3-|-0--0-0---0--0-0----0--0-0----0--0-5-3-|
E|----------------------------|---------------------------------------|


G|-------------------------|------------------------------7--7-----------------------|
D|-----------------4-7-4---|-4--4------4--4--------4-7--7------7--7------------------|
A|-0--0-0---0--4-7-------7-|------4--4------4--4-5------------------7--7-7-7-7-7-7-7-|
E|-------------------------|---------------------------------------------------------|

00:55
G|-------------------|-------------------|-------------------|------------------|
D|-------------------|-------------------|-------------------|------------------|
A|-0--0-0---0--0-5-3-|-0--0-0---0--0-5-3-|-0--0-0---0--0-5-3-|-0--0-0---0-0-5-3-|
E|-------------------|-------------------|-------------------|------------------|


-------------------------
01:10
VERSE 2
********
G|----------------------------|---------------------------------------|
D|----------------------------|---------------------------------------|
A|-0--0-0---0--0-0---0--0-5-3-|-0--0-0---0--0-0----0--0-0----0--0-5-3-|
E|----------------------------|---------------------------------------|


G|-------------------------|------------------------------------------------------------------|
D|-----------------4-7-4---|-4--4------4-----4-----4------------------------------------------|
A|-0--0-0---0--4-7-------7-|------4--4---4-7---4-7---5--5------5---3-5---5-6-7--7-7-7-7-7-7-7-|
E|-------------------------|------------------------------5--5---5-----5----------------------|


01:39
G|-------------------|-------------------|-------------------|------------------|---|
D|-------------------|-------------------|-------------------|------------------|---|
A|-0--0-0---0--0-5-3-|-0--0-0---0--0-5-3-|-0--0-0---0--0-5-3-|-0--0-0---0-0-5-3-|-0-|
E|-------------------|-------------------|-------------------|------------------|---|


-------------------------
02:02
******
BREAK
******
G|-------------|-------------|
D|-------------|-------------|
A|-5~~-3~~-0~~-|-5~~-3~~-0~~-|
E|-------------|-------------|

02:11
G|-------------------|-------------------|-------------------|------------------|
D|-------------------|-------------------|-------------------|------------------|
A|-0--0-0---0--0-5-3-|-0--0-0---0--0-5-3-|-0--0-0---0--0-5-3-|-0--0-0---0-0-5-3-|
E|-------------------|-------------------|-------------------|------------------|


-------------------------
02:26
VERSE 3
********
G|----------------------------|---------------------------------------|
D|----------------------------|---------------------------------------|
A|-0--0-0---0--0-0---0--0-5-3-|-0--0-0---0--0-0----0--0-0----0--0-5-3-|
E|----------------------------|---------------------------------------|


G|----------s------s------s------s----|------------------------------------7---------------------|
D|---------5\7-7--5\7-7--5\7-7--5\7-7-|-4--4------4--4-----------4--4-7--7----7------------------|
A|-0--0-0-----------------------------|------4--4------4--4-5--5----------------7--7-7-7-7-7-7-7-|
E|------------------------------------|----------------------------------------------------------|

02:56
G|-------------------|-------------------|-------------------|-------------------|---|
D|-------------------|-------------------|-------------------|-------------------|---|
A|-0--0-0---0--0-5-3-|-0--0-0---0--0-5-3-|-0--0-0---0--0-5-3-|-0--0-0---0--0-5-3-|-0-|
E|-------------------|-------------------|-------------------|-------------------|---|



ENJOY...........



--------------------------------------------------------------------------
                          Artist - Christie
                         *******************
                      Song - Coming Home Tonight
                     ****************************
                       Album - Christie (1970)
                      *************************
                        Tabbed By - Ayreon77
                       **********************
--------------------------------------------------------------------------
Tuning = Standard             


INTRO
******
G|----------------------------------------------------------------|
D|----------------------------------------------------------------|
A|---------3--3-3----------3--3-3----------3--3-3----------3--3-3-|
E|-3--3-3----------3--3-3----------3--3-3----------3--3-3---------|


----------------------
00:15
VERSE 1
********
G|--------|--------|--------|--------|--------|--------|
D|--------|--------|--------|--------|--------|--------|
A|-5--5-5-|--------|-5--5-5-|--------|-5--5-5-|--------|
E|--------|-3--3-3-|--------|-3--3-3-|--------|-3--3-3-|


----------------------
00:25
CHORUS
*******
G|--------|--------|--------|--------|
D|--------|--------|--------|--------|
A|-5--5-5-|--------|-5--5-5-|--------|
E|--------|-3--3-3-|--------|-3--3-3-|


----------------------
00:32
BREAK
******
G|--------|--------|--------|--------|--------|--------|--------|--------|
D|--------|--------|--------|--------|--------|--------|--------|--------|
A|--------|-3--3-3-|--------|-3--3-3-|--------|-3--3-3-|--------|-3--3-3-|
E|-3--3-3-|--------|-3--3-3-|--------|-3--3-3-|--------|-3--3-3-|--------|


----------------------
00:45
VERSE 2
********
G|--------|--------|--------|--------|--------|--------|
D|--------|--------|--------|--------|--------|--------|
A|-5--5-5-|--------|-5--5-5-|--------|-5--5-5-|--------|
E|--------|-3--3-3-|--------|-3--3-3-|--------|-3--3-3-|


----------------------
00:56
CHORUS
*******
G|--------|--------|--------|-----------------|
D|--------|--------|--------|-----------------|
A|-5--5-5-|--------|-5--5-5-|-----------------|
E|--------|-3--3-3-|--------|-3-3-3-3-3-3-4-5-|


----------------------
01:03
BRIDGE
*******
G|--------|--------|--------|--------|--------|--------|--------|------------|
D|--------|--------|--------|--------|--------|--------|--------|--------0-2-|
A|--------|--------|--------|--------|--------|--------|-3--3-3-|-3--3-3-----|
E|-6--6-6-|-6--6-6-|-6--6-6-|-6--6-6-|-4--4-4-|-4--4-4-|--------|------------|

01:16
G|--------|--------|--------|--------|--------|--------|--------|--------|
D|-3--3-3-|-3--3-3-|-3--3-3-|-3--3-3-|-1--1-1-|-1--1-1-|--------|--------|
A|--------|--------|--------|--------|--------|--------|-3--3-3-|-3--3-3-|
E|--------|--------|--------|--------|--------|--------|--------|--------|


----------------------
01:30
VERSE 3
********
G|--------|--------|--------|--------|--------|--------|
D|--------|--------|--------|--------|--------|--------|
A|-5--5-5-|--------|-5--5-5-|--------|-5--5-5-|--------|
E|--------|-3--3-3-|--------|-3--3-3-|--------|-3--3-3-|


----------------------
01:40
CHORUS
*******
G|--------|--------|--------|-----------------|
D|--------|--------|--------|-----------------|
A|-5--5-5-|--------|-5--5-5-|-----------------|
E|--------|-3--3-3-|--------|-3-3-3-3-3-3-4-5-|


----------------------
02:01
BRIDGE
*******
G|--------|--------|--------|--------|--------|--------|--------|------------|
D|--------|--------|--------|--------|--------|--------|--------|--------0-2-|
A|--------|--------|--------|--------|--------|--------|-3--3-3-|-3--3-3-----|
E|-6--6-6-|-6--6-6-|-6--6-6-|-6--6-6-|-4--4-4-|-4--4-4-|--------|------------|

01:16
G|--------|--------|--------|--------|--------|--------|--------|--------|
D|-3--3-3-|-3--3-3-|-3--3-3-|-3--3-3-|-1--1-1-|-1--1-1-|--------|--------|
A|--------|--------|--------|--------|--------|--------|-3--3-3-|-3--3-3-|
E|--------|--------|--------|--------|--------|--------|--------|--------|


----------------------
02:15
VERSE 3
********
G|--------|--------|--------|--------|--------|--------|
D|--------|--------|--------|--------|--------|--------|
A|-5--5-5-|--------|-5--5-5-|--------|-5--5-5-|--------|
E|--------|-3--3-3-|--------|-3--3-3-|--------|-3--3-3-|


----------------------
02:25
CHORUS
*******
G|--------|--------|--------|--------|
D|--------|--------|--------|--------|
A|-5--5-5-|--------|-5--5-5-|--------|
E|--------|-3--3-3-|--------|-3--3-3-|


G|--------|--------|--------|----------|
D|--------|--------|--------|----------|
A|-5--5-5-|--------|-5--5-5-|----------|
E|--------|-3--3-3-|--------|-3-3-3-3-3|


----------------------
02:39
OUTRO
******                            Fade Out........................
G|----------------------------------------------------------------|
D|----------------------------------------------------------------|
A|---------3--3-3----------3--3-3----------3--3-3----------3--3-3-|
E|-3--3-3----------3--3-3----------3--3-3----------3--3-3---------|



ENJOY...........



--------------------------------------------------------------------------
                          Artist - Christie
                         *******************
                          Song - Here I Am
                         ******************
                       Album - Christie (1970)
                      *************************
                        Tabbed By - Ayreon77
                       **********************
--------------------------------------------------------------------------
Tuning = Standard             


INTRO
******
G|-----------------------|----------------|------------------------|
D|-4-5-6-7-7-7-7-7-7-7-7-|-4-5-5-5--5-5-5-|----4--5--6--7--5--4----|
A|-----------------------|----------------|-5--------------------7-|
E|-----------------------|----------------|------------------------|


-------------------------
00:05
VERSE 1
********
G|----------------|----------------|----------------|----------------|
D|----------------|----------------|----------------|----------------|
A|-3-5-5-5--5-5-5-|-3-5-5-5--5-5-5-|-3-5-5-5--5-5-5-|-3-5-5-5--5-5-5-|
E|----------------|----------------|----------------|----------------|


G|----------------|----------------|----------------|----------------|
D|-3-5-5-5--5-5-5-|-3-5-5-5--5-5-5-|----------------|----------------|
A|----------------|----------------|-3-5-5-5--5-5-5-|-3-5-5-5--5-5-5-|
E|----------------|----------------|----------------|----------------|


G|--h-------------|--h-------------|
D|-6-7-7-7--7-7-7-|-4-5-5-5--5-5-5-|
A|----------------|----------------|
E|----------------|----------------|


G|-------------------|----------------|
D|-------------------|----------------|
A|-3-5-5-5-5-5-5-5-5-|-3-5-5-5--5-5-5-|
E|-------------------|----------------|


-------------------------
00:20
VERSE 2
*********
G|----------------|----------------|----------------|----------------|
D|----------------|----------------|----------------|----------------|
A|-3-5-5-5--5-5-5-|-3-5-5-5--5-5-5-|-3-5-5-5--5-5-5-|-3-5-5-5--5-5-5-|
E|----------------|----------------|----------------|----------------|


G|----------------|----------------|----------------|----------------|
D|-3-5-5-5--5-5-5-|-3-5-5-5--5-5-5-|----------------|----------------|
A|----------------|----------------|-3-5-5-5--5-5-5-|-3-5-5-5--5-5-5-|
E|----------------|----------------|----------------|----------------|


G|--h-------------|--h-------------|
D|-6-7-7-7--7-7-7-|-4-5-5-5--5-5-5-|
A|----------------|----------------|
E|----------------|----------------|


G|-------------------|---------|
D|-------------------|---------|
A|-3-5-5-5-5-5-5-5-5-|-3-5-5-5-|
E|-------------------|---------|


-------------------------
00:34
CHORUS
*******
G|-------|-------|-------|-----------------|
D|-------|-------|-------|-----------------|
A|---3-5-|---3---|---3-5-|---3--5--3--2----|
E|-5-----|-5---3-|-5-----|-5-------------5-|


G|----------------|----------------|----------------|----------------|
D|-3-5-5-5--5-5-5-|-3-5-5-5--5-5-5-|----------------|----------------|
A|----------------|----------------|-3-5-5-5--5-5-5-|-3-5-5-5--5-5-5-|
E|----------------|----------------|----------------|----------------|


G|--h-------------|--h-------------|
D|-6-7-7-7--7-7-7-|-4-5-5-5--5-5-5-|
A|----------------|----------------|
E|----------------|----------------|


G|------------------|---------|
D|------------------|---------|
A|-3-5-5-5--5-5-5-5-|-3-5-5-5-|
E|------------------|---------|

00:49
G|-----------|-----------|-----------|-----------------|
D|-----------|-----------|-----------|-----------------|
A|---3-5-5-5-|---3-------|---3-5-5-5-|---3--5--3--2----|
E|-5---------|-5---3-3-3-|-5---------|-5-------------5-|


-------------------------
00:54
PIANO
******
G|-------|-------|-------|-----------------|
D|-------|-------|-------|-----------------|
A|---3-5-|---3---|---3-5-|---3--5--3--2----|
E|-5-----|-5---3-|-5-----|-5-------------5-|


G|----------------|----------------|----------------|----------------|
D|-3-5-5-5--5-5-5-|-3-5-5-5--5-5-5-|----------------|----------------|
A|----------------|----------------|-3-5-5-5--5-5-5-|-3-5-5-5--5-5-5-|
E|----------------|----------------|----------------|----------------|


G|--h-------------|--h-------------|--h-------------|--h-------------|
D|-6-7-7-7--7-7-7-|-6-7-7-7--7-7-7-|-4-5-5-5--5-5-5-|-4-5-5-5--5-5-5-|
A|----------------|----------------|----------------|----------------|
E|----------------|----------------|----------------|----------------|


G|----------------|----------------|----------------|----------7-5-------|
D|----------------|----------------|----------------|--------------7-5-3-|
A|-3-5-5-5--5-5-5-|-3-5-5-5--5-5-5-|-3-5-5-5--5-5-5-|-3-5-5-5------------|
E|----------------|----------------|----------------|--------------------|


-------------------------
01:08
SOLO
*****
G|----------------|----------------|----------------|----------------|
D|----------------|----------------|----------------|----------------|
A|-3-5-5-5--5-5-5-|-3-5-5-5--5-5-5-|-3-5-5-5--5-5-5-|-3-5-5-5--5-5-5-|
E|----------------|----------------|----------------|----------------|


G|----------------|----------------|----------------|----------------|
D|-3-5-5-5--5-5-5-|-3-5-5-5--5-5-5-|----------------|----------------|
A|----------------|----------------|-3-5-5-5--5-5-5-|-3-5-5-5--5-5-5-|
E|----------------|----------------|----------------|----------------|


G|--h-------------|--h-------------|--h-------------|--h-------------|
D|-6-7-7-7--7-7-7-|-6-7-7-7--7-7-7-|-4-5-5-5--5-5-5-|-4-5-5-5--5-5-5-|
A|----------------|----------------|----------------|----------------|
E|----------------|----------------|----------------|----------------|


G|----------------|----------------|----------------|----------7-5-------|
D|----------------|----------------|----------------|--------------7-5-3-|
A|-3-5-5-5--5-5-5-|-3-5-5-5--5-5-5-|-3-5-5-5--5-5-5-|-3-5-5-5------------|
E|----------------|----------------|----------------|--------------------||


-------------------------
01:28
VERSE 3
********
G|----------------|----------------|----------------|----------------|
D|----------------|----------------|----------------|----------------|
A|-3-5-5-5--5-5-5-|-3-5-5-5--5-5-5-|-3-5-5-5--5-5-5-|-3-5-5-5--5-5-5-|
E|----------------|----------------|----------------|----------------|


G|----------------|----------------|----------------|----------------|
D|-3-5-5-5--5-5-5-|-3-5-5-5--5-5-5-|----------------|----------------|
A|----------------|----------------|-3-5-5-5--5-5-5-|-3-5-5-5--5-5-5-|
E|----------------|----------------|----------------|----------------|


G|--h-------------|--h-------------|
D|-6-7-7-7--7-7-7-|-4-5-5-5--5-5-5-|
A|----------------|----------------|
E|----------------|----------------|


G|----------------|----------------|
D|----------------|----------------|
A|-3-5-5-5--5-5-5-|-3-5-5-5--5-5-5-|
E|----------------|----------------|



-------------------------
01:42
VERSE 4
********
G|----------------|----------------|----------------|----------------|
D|----------------|----------------|----------------|----------------|
A|-3-5-5-5--5-5-5-|-3-5-5-5--5-5-5-|-3-5-5-5--5-5-5-|-3-5-5-5--5-5-5-|
E|----------------|----------------|----------------|----------------|


G|----------------|----------------|----------------|----------------|
D|-3-5-5-5--5-5-5-|-3-5-5-5--5-5-5-|----------------|----------------|
A|----------------|----------------|-3-5-5-5--5-5-5-|-3-5-5-5--5-5-5-|
E|----------------|----------------|----------------|----------------|


G|--h-------------|--h-------------|
D|-6-7-7-7--7-7-7-|-4-5-5-5--5-5-5-|
A|----------------|----------------|
E|----------------|----------------|


G|----------------|---------|
D|----------------|---------|
A|-3-5-5-5--5-5-5-|-3-5-5-5-|
E|----------------|---------|


-------------------------
01:56
CHORUS
*******
CHORUS
*******
G|-------|-------|-------|-----------------|
D|-------|-------|-------|-----------------|
A|---3-5-|---3---|---3-5-|---3--5--3--2----|
E|-5-----|-5---3-|-5-----|-5-------------5-|


G|----------------|----------------|----------------|----------------|
D|-3-5-5-5--5-5-5-|-3-5-5-5--5-5-5-|----------------|----------------|
A|----------------|----------------|-3-5-5-5--5-5-5-|-3-5-5-5--5-5-5-|
E|----------------|----------------|----------------|----------------|


G|--h-------------|--h-------------|
D|-6-7-7-7--7-7-7-|-4-5-5-5--5-5-5-|
A|----------------|----------------|
E|----------------|----------------|


G|------------------|---------|
D|------------------|---------|
A|-3-5-5-5--5-5-5-5-|-3-5-5-5-|
E|------------------|---------|

02:10
G|-----------|-----------|-----------|-----------------|
D|-----------|-----------|-----------|-----------------|
A|---3-5-5-5-|---3-------|---3-5-5-5-|---3--5--3--2----|
E|-5---------|-5---3-3-3-|-5---------|-5-------------5-|


-------------------------
02:16
OUTRO
******
G|----------------|----------------|----------------|----------------|
D|-3-5-5-5--5-5-5-|-3-5-5-5--5-5-5-|----------------|----------------|
A|----------------|----------------|-3-5-5-5--5-5-5-|-3-5-5-5--5-5-5-|
E|----------------|----------------|----------------|----------------|


G|--h-------------|--h-------------|--h-------------|--h-------------|
D|-6-7-7-7--7-7-7-|-6-7-7-7--7-7-7-|-4-5-5-5--5-5-5-|-4-5-5-5--5-5-5-|
A|----------------|----------------|----------------|----------------|
E|----------------|----------------|----------------|----------------|


G|------------------------------|-----6-7----|
D|-------4--4--5--5--6--6--7--7-|-7-9--------|
A|-5--5-------------------------|----------5-|
E|------------------------------|------------|



ENJOY...........



--------------------------------------------------------------------------
                          Artist - Christie
                         *******************
                        Song - Until The Dawn
                       ***********************
                       Album - Christie (1970)
                      *************************
                        Tabbed By - Ayreon77
                       **********************
--------------------------------------------------------------------------
Tuning = Standard             



INTRO
******
G|------------------------------|
D|-7--7----7--7----7--7----7--7-|
A|------------------------------|
E|------------------------------|


---------------------------
00:13
VERSE 1
********
G|----------------------------|----------------------------|
D|-7--7----------7--7----7--7-|-7--7----------7--7----7--7-|
A|--------5--5----------------|--------5--5----------------|
E|----------------------------|----------------------------|


G|----------------------------|---------------------------|
D|----------------------------|----------------------4--4-|
A|---------------5--5---------|---------------5--5--------|
E|-7--7---7--7-----------5--5-|-7--7---7--7---------------|


---------------------------
00:52
CHORUS
*******
G|----------------------------|-----------------|
D|-----------------------4--4-|--------7--7---7-|
A|-4--4---5--5----------------|-7--7------------|
E|---------------7--7---------|-----------------|


---------------------------
01:07
SOLO
*****
    s                    s                    s                    s
G|-9\11---------------|-9\11---------------|-9\11---------------|-9\11------------------|
D|------11---9--9---9-|------11---7--7---7-|------11---9--9---9-|------11---7--7---7--7-|
A|--------------------|--------------------|--------------------|-----------------------|
E|--------------------|--------------------|--------------------|-----------------------|


---------------------------
01:28
VERSE 2
********
G|----------------------------|----------------------------|
D|-7--7----------7--7----7--7-|-7--7----------7--7----7--7-|
A|--------5--5----------------|--------5--5----------------|
E|----------------------------|----------------------------|


G|----------------------------|---------------------------|
D|----------------------------|----------------------4--4-|
A|---------------5--5---------|---------------5--5--------|
E|-7--7---7--7-----------5--5-|-7--7---7--7---------------|


---------------------------
02:07
CHORUS
*******
G|----------------------------|-----------------|
D|-----------------------4--4-|--------7--7---7-|
A|-4--4---5--5----------------|-7--7------------|
E|---------------7--7---------|-----------------|


---------------------------
02:22
SOLO
*****
    s                    s                   
G|-9\11---------------|-9\11-----------|
D|------11---9--9---9-|------11---7--7-|
A|--------------------|----------------|
E|--------------------|----------------|


---------------------------
02:31
CHORUS
*******
G|----------------------------|-----------------|
D|-----------------------4--4-|--------7--7---7-|
A|-4--4---5--5----------------|-7--7------------|
E|---------------7--7---------|-----------------|


---------------------------
02:46
SOLO
*****
    s                    s                    s                    s
G|-9\11---------------|-9\11---------------|-9\11---------------|-9\11---------------|
D|------11---9--9---9-|------11---7--7---7-|------11---9--9---9-|------11---7--7---7-|
A|--------------------|--------------------|--------------------|--------------------|
E|--------------------|--------------------|--------------------|--------------------|


    s                    s                    s                    s
G|-9\11---------------|-9\11---------------|-9\11---------------|-9\11--------|
D|------11---9--9---9-|------11---7--7---7-|------11---9--9---9-|------11---7-|
A|--------------------|--------------------|--------------------|-------------|
E|--------------------|--------------------|--------------------|-------------|



ENJOY.............




            
            
Suggest correction
Creating personal tab
Creating personal tab
You can edit any tab online and save it as your Personal.

You can edit, replace or remove any tab part or add personal notes – all changes will be seen only by you.

Personal tabs can be accessed anytime from any device, even offline.
Learn more »
Give kudos to tab author, rate the tab!
1 2 3 4 5
comments
print report bad tab
guest
You may want to rate the tab now too:
select rating
Wanna post a correction for this tab? Suggest correction