Oops, an error
Loading. Please wait.

Think Of Laura tab

24,273 views 18 this week
no commentswrite comment
1 2 3 4 5
x 6
add to favorites
×
Save as Personal and add changes to this tab that will be seen only by you. Learn more ›
×
You can save this tab as Personal to edit and correct it or add notes. All changes will be seen only by you. Learn more »
launch autoscroll
font size
0
reset
how to read this tab
guitar tuner
edit
Autoscroll
slow
fast
+/-
esc
set tempo
stop
Author
INTRO:
    D                    Aadd9/Db            Em7
e|--------------------------------------------------------------|
B|--7----7-----7----7-----0---0-----0---0-----0---0----7---7----|
G|--7----7-----7----7-----9---9-----9---9-----7---7----7---7----|
D|----7----------7----------7---------7---------5--------7------|
A|--5--------5-5------------------------------------------------|
E|------------------------9-------9-9-------9-0------0-7---7----|

             G
e|-------------------------------------------------|
B|-----------3---3----3---3---3---3----3---3-------|
G|-----------4---4----2---2---4---4----2---2-------|
D|-------------0--------0-------0--------0---------|
A|-------------------------------------------------|
E|-----------3------3-3-------3------3-3-----------|



VERSE:
    D                    Aadd9/Db            Em7
e|--------------------------------------------------------------|
B|--7----7-----7----7-----0---0-----0---0-----0---0----7---7----|
G|--7----7-----7----7-----9---9-----9---9-----7---7----7---7----|
D|----7----------7----------7---------7---------5--------7------|
A|--5--------5-5------------------------------------------------|
E|------------------------9-------9-9-------9-0------0-7---7----|
         Every once in a while I'd see her smile

             G      
e|-----------------------------|
B|-----------3---3----3---3----|
G|-----------4---4----2---2----|
D|-------------0--------0------|
A|-----------------------------|
E|-----------3------3-3--------|
   And she'd turn   my day around

  D                      Aadd9/Db                  Em7
e|--------------------------------------------------------------------|
B|7----7----7----7--------0---0-----0---0-----------0---0----7---7----|
G|7----7----7----7--------9---9-----9---9-----------7---7----7---7----|
D|--7---------7-------------7---------7---------------5--------7------|
A|5-------5-5---------------------------------------------------------|
E|------------------------9-------9-9-------------9-0------0-7---7----|
     A girl with those eyes Could stare through the lies and see 

             G        Asus4 A
e|-------------------------------|
B|-----------3-----3----3---2----|
G|-----------4-----4----2---2----|
D|---------------0--------2------|
A|--------------------0-0--------|
E|-----------3-------------------|
  what your heart was  saying



CHORUS: 
    B           F#/B    Ab11              Ab
e|--------------------2-------2--------------------------|
B|--4------4-----2----2--2----2-----------4----4---------|
G|--4------4-----3-------3----------------5----5---------|
D|-----2-----------4--------4---------------6------------|
A|--2------------2---------------------------------------|
E|-----------------------4----------------4--------------|
      Think of Laura but    laugh don't cry

     Dbm7       F#11             B         F#/B
e|---------------0----0---------------------------2-------|
B|----5-----5----0----0----------4-----4----2-----2-------|
G|----4-----4-------1------------4-----4----3-------------|
D|-------6--------------------------4----------4----------|
A|----4--------------------------2----------2-------------|
E|---------------2----------------------------------------|
   I know she'd want it that way                 when you

    B           F#/B    Ab11              Ab
e|--------------------2-------2--------------------------|
B|--4------4-----2----2--2----2-----------4----4---------|
G|--4------4-----3-------3----------------5----5---------|
D|-----2-----------4--------4---------------6------------|
A|--2------------2---------------------------------------|
E|-----------------------4----------------4--------------|
      Think of Laura but    laugh don't cry

     Dbm7       F#11          B
e|---------------0----0---------------------------------|
B|----5-----5----0----0-------4-----4-----4-----4-------|
G|----4-----4-------1---------4-----4-----4-----4-------|
D|-------6-----------------------4-----4----4-----4-----|
A|----4-----------------------2-------------------------|
E|---------------2--------------------------------------|
   I know she'd want it that way


Verse, chorus...


BEFORE BRIDGE:
      Dbm7      F#11          B                 F#
e|---------------0----0---------------------------------|
B|----5-----5----0----0-------4-----4-----4-----2-------|
G|----4-----4-------1---------4-----4-----4-----3-------|
D|-------6-----------------------4-----4----4-----------|
A|----4-----------------------2-----------------1-------|
E|---------------2--------------------------------------|
...I know she'd want it that way




BRIDGE:
   Abm     Dbm7      F#            B
e|-----------------------------------------------|
B|-----4--------5---------2-------------4--------|
G|-------4--------6---------3-------------4------|
D|---6--------6--------4-------------4-----------|
A|----------4----------------------2-------------|
E|-4-----------------2---------------------------|
       I  know you    and you're here

      E        F#         B              F#
e|-------------------------------------------------|
B|---------0---------2----4--------4-----2---------|
G|-----------1---------3--4----4---4-----3---------|
D|------2---------4----------4--------4------------|
A|------------------------2------2-2-----1---------|
E|----0--------2-----------------------------------|
   In every    day  we  live


  Abm      Dbm7      F#            B
e|-----------------------------------------------|
B|-----4--------5---------2-------------4--------|
G|-------4--------6---------3-------------4------|
D|---6--------6--------4-------------4-----------|
A|----------4----------------------2-------------|
E|-4-----------------2---------------------------|
       I know her      and she's here

      E                    F#sus4         F#
e|---------------------------------2-------------2--------|
B|---------0-------0------------2----2---------2----2-----|
G|-----------1-------1-----4------------4-3---------------|
D|------2-------2------------4--------------4-------------|
A|--------------------------------------------------------|
E|----0-------0------------2--------------2---------------|
I can feel her when   I  sing


Verse, chorus..

OUTRO:
     Dbm7       F#11           B              Abm
e|---------------0----0----------------------------------------|
B|----5-----5----0----0-------------4--2--4----------4--2--4---|
G|----4-----4-------1---------------4--3--4----------4--3--4---|
D|-------6------------------------4---------------4------------| (2)
A|----4------------------------2-------------1-----------------|
E|---------------2-----------------------------4---------------|
but I know she'd want it that way   hey laura         hey laura


     Dbm7       F#11           B
e|---------------0----0--------------------------------|
B|----5-----5----0----0-------------4--2--4------------|
G|----4-----4-------1---------------4--3--4------------|
D|-------6------------------------4-------4------------| 
A|----4------------------------2----------2------------|
E|---------------2-------------------------------------|
    I know she'd want it that way   hey laura         





            
            
Suggest correction
Creating personal tab
Creating personal tab
You can edit any tab online and save it as your Personal.

You can edit, replace or remove any tab part or add personal notes – all changes will be seen only by you.

Personal tabs can be accessed anytime from any device, even offline.
Learn more »
comments
print report bad tab
guest
You may want to rate the tab now too:
select rating
Wanna post a correction for this tab? Suggest correction