Oops, an error
Loading. Please wait.

Oh My Love tab

934 views 1 this week
no commentswrite comment
1 2 3 4 5
1 last vote to show rating
add to favorites
×
Save as Personal and add changes to this tab that will be seen only by you. Learn more ›
×
You can save this tab as Personal to edit and correct it or add notes. All changes will be seen only by you. Learn more »
launch autoscroll
font size
0
reset
how to read this tab
guitar tuner
edit
Autoscroll
slow
fast
+/-
esc
set tempo
stop
Author
-------------------------------------------------------------------------------
                             OH MY LOVE - Christopher Owens
-------------------------------------------------------------------------------
Tabbed by: rasgibson

Tuning: Standard 

The chord shapes used in this song are A, Bm and E with little bits added on or taken away.

Intro:
               
e|---------------------------------------------------------------------------|
B|---------2---2h3-----3-2-----2-2h3-----3-2-----2-2h3-----3-2---------------|
G|---------2-------2-------2---------2-------2---------2---------------------|
D|-------2---2-------2-------2---------2-------2---------2-------------------|
A|-----0---------------------------------------------------------------------|
E|---------------------------------------------------------------------------|


Verse 1:
           
e|------------------------------------------------------------------------------------------------|
B|---------2---2h3-----3-2---------3-------3-------------------3-----3-0---------2---2h3-----3-2--|
G|---------2-------2---------------4-------4--------1------1-----1---------------2-------2--------|
D|-------2---2-------2-----------4---4---4---4------2------2-------2-----------2---2-------2------|
A|-----0-----------------------2-------0----------2------2---2---------------0--------------------|
E|----------------------------------------------0------0------------------------------------------|

Verse 2:

e|------------------------------------------------------------------------------------------------|
B|---------2---2h3-----3-2---------3-------3-------------------3-----3-0---------2---2h3-----3-2--|
G|---------2-------2---------------4-------4--------1------1-----1---------------2-------2--------|
D|-------2---2-------2-----------4---4---4---4------2------2-------2-----------2---2-------2------|
A|-----0-----------------------2-------0----------2------2---2---------------0--------------------|
E|----------------------------------------------0------0------------------------------------------|


Chorus:

e|------------------------0----------------------2-------------------------0-------------------------|
B|------3-------3-----------------2-----2--------2-------3-------3-----------------2---2h3-----3-2---|
G|------4-------4-------1---------2-----2------2---------4-------4-------1---------2-------2---------|
D|----4---4---4---4-----2-------2-----2------4---------4---4---4---4-----2-------2---2-------2-------|
A|--2-------0---------2-------0----------------------2-------0---------2-------0---------------------|
E|------------------0---------------4------2-------------------------0-------------------------------|

Verse 3:

e|------------------------------------------------------------------------------------------------|
B|---------2---2h3-----3-2---------3-------3-------------------3-----3-0---------2---2h3-----3-2--|
G|---------2-------2---------------4-------4--------1------1-----1---------------2-------2--------|
D|-------2---2-------2-----------4---4---4---4------2------2-------2-----------2---2-------2------|
A|-----0-----------------------2-------0----------2------2---2---------------0--------------------|
E|----------------------------------------------0------0------------------------------------------|

Verse 4:

e|------------------------------------------------------------------------------------------------|
B|---------2---2h3-----3-2---------3-------3-------------------3-----3-0---------2---2h3-----3-2--|
G|---------2-------2---------------4-------4--------1------1-----1---------------2-------2--------|
D|-------2---2-------2-----------4---4---4---4------2------2-------2-----------2---2-------2------|
A|-----0-----------------------2-------0----------2------2---2---------------0--------------------|
E|----------------------------------------------0------0------------------------------------------|

Chorus:

e|------------------------0----------------------2-------------------------0-------------------------|
B|------3-------3-----------------2-----2--------2-------3-------3-----------------2---2h3-----3-2---|
G|------4-------4-------1---------2-----2------2---------4-------4-------1---------2-------2---------|
D|----4---4---4---4-----2-------2-----2------4---------4---4---4---4-----2-------2---2-------2-------|
A|--2-------0---------2-------0----------------------2-------0---------2-------0---------------------|
E|------------------0---------------4------2-------------------------0-------------------------------|

Lyrics: 

Verse 1: You never said you might be leaving
         You never let on with those eyes
         You always said it was forever 
         You always told such pretty lies 

Verse 2: You never wore it on your finger
         You never told your mother so 
         You always gave me such a fever 
         And so much trouble in my soul

Chorus: Just like always 
        Oh my love 
        I know you're just foolin' 
        Just like always 
        Oh my love 
        Foolin' with my heart 

Verse 3: I never thought I'd just be crying 
         When you went away that day
         I never though I'd find another 
         And she could take the pain away 

Verse 4: I've never felt somebody love me 
         The way my baby loves me now
         She took my heart and made me happy
         That's why I'll never let her down

Chorus: Just like always 
        Oh my love
        I know you're just foolin'
        Just like always 
        Oh my love
        Foolin' with my heart 



************************************

| /   slide up
| \   slide down
| h   hammer-on
| p   pull-off
| ~   vibrato
| +   harmonic
| x   Mute note
| b   Bend
| pb  Pre-bend
| br  Bend release
| pbr Pre-bend release
| brb Bend release bend

************************************

            
            
Suggest correction
Creating personal tab
Creating personal tab
You can edit any tab online and save it as your Personal.

You can edit, replace or remove any tab part or add personal notes – all changes will be seen only by you.

Personal tabs can be accessed anytime from any device, even offline.
Learn more »
Give kudos to tab author, rate the tab!
1 2 3 4 5
comments
print report bad tab
guest
You may want to rate the tab now too:
select rating
Wanna post a correction for this tab? Suggest correction