Oops, an error
Loading. Please wait.
We have an official Johnny B Goode tab made by UG professional guitarists. Check out the tab »
×
28,926 views 21 this week
2 commentsread comments
1 2 3 4 5
x 8
add to favorites
×
Save as Personal and add changes to this tab that will be seen only by you. Learn more ›
×
You can save this tab as Personal to edit and correct it or add notes. All changes will be seen only by you. Learn more »
launch autoscroll
font size
0
reset
how to read this tab
guitar tuner
backing track
0:00
0:00
edit
Autoscroll
slow
fast
+/-
esc
set tempo
stop
Author
Difficulty
                              Johnny B. Goode 




 Gtr I
  H    E E E E   E E E E E E E E   E E E E E E E E   E E E E E E E E
|----------1-3-|-6-6-6-6-6-6-6-6-|-6-4-3-1---------|------------------|
|--------3-----|-6-6-6-6-6-6-6-6-|-6-------2-3-----|------------------|
|--------------|-----------------|-------------3---|-3-3-3-3-3-3-3-3--|
|--------------|-----------------|---------------3-|-3-3-3-3-3-3-3-3--|
|--------------|-----------------|-----------------|------------------|
|--------------|-----------------|-----------------|------------------|


  E E E E E E E E   E E E E E E E E   E E E E E E E E   E E E E E E E E
|-1-1-3-1---------|-----------------|-----------------|-----------------|
|-3-3-3-3-1-------|-----1-------1---|-----1-------1---|-----------------|
|-----------3-----|-3-3---3-3-3---3-|-3-3---3-3-3---3-|-----------------|
|-------------5-3-|-1-1-1-1-1-1-1-1-|-1-1-1-1-1-1-1-1-|-3-3-5-3-3-3-5-3-|
|-----------------|-----------------|-----------------|-1-1-1-1-1-1-1-1-|
|-----------------|-----------------|-----------------|-----------------|
|
| Gtr II
| W                 E E E E E E E E   E E E E E E E E   E E E E E E E E
|-----------------|-----------------|-----------------|-----------------|
|-----------------|-4---6-4---6-4---|-6-4---6-4---6---|-4---6-4---6-4---|
|-----------------|-----------------|-----------------|-----------------|
|-----------------|-----------------|-----------------|-----------------|
|-----------------|-----------------|-----------------|-----------------|
|-----------------|-----------------|-----------------|-----------------|


  E E E E E E E E   E E E E E E E E   E E E E E E   E E   E E E E E E E E
|-----------------|-----------------|-------------------|------------------|
|-----------------|-----3-------3---|-----1---------1---|------------------|
|-----------------|-5-5---5-5-5---5-|-3-3---3-3-3-----3-|------------------|
|-3-3-5-3-3-3-5-3-|-3-3-3-3-3-3-3-3-|-1-1-1-1-1-1---1-1-|-3-3-5-3-3-3-5-3--|
|-1-1-1-1-1-1-1-1-|-----------------|-------------------|-1-1-1-1-1-1-1-1--|
|-----------------|-----------------|-------------------|------------------|
|
| E E E E E E E E   E E E E E E E E   E E E E E S S E E   E E E E E E E E
|-----------------|-----6-4-3-1-8-6-|-4-3-1-------1-6-4-|-3-1--------------|
|-6-4---6-4---6---|-4---------------|-------4-3-3-------|-----4-6-4-6-4-2--|
|-----------------|-----------------|-------------------|------------------|
|-----------------|-----------------|-------------------|------------------|
|-----------------|-----------------|-------------------|------------------|
|-----------------|-----------------|-------------------|------------------|


  E E E E E E E E   E E E E E E E E   E E E E E E E E   E E E E E E E E
|-----------------|-----------------|-----------------|-----------------|
|-----------------|-----------------|-----------------|-----------------|
|-----------------|-----------------|-----------------|-----------------|
|-3-3-5-3-3-3-5-3-|-3-3-5-3-3-3-5-3-|-3-3-5-3-3-3-5-3-|-3-3-5-3-3-3-5-3-|
|-1-1-1-1-1-1-1-1-|-1-1-1-1-1-1-1-1-|-1-1-1-1-1-1-1-1-|-1-1-1-1-1-1-1-1-|
|-----------------|-----------------|-----------------|-----------------|
|
| Q   Q   H         W                 W                 W
|-----------------|-----------------|-----------------|-----------------|
|-----------------|-----------------|-----------------|-----------------|
|-3---------------|-----------------|-----------------|-----------------|
|-----------------|-----------------|-----------------|-----------------|
|-----------------|-----------------|-----------------|-----------------|
|-----------------|-----------------|-----------------|-----------------|


  E E E E E E E E   E E E E E E E E   E E E E E E E E   E E E E E E E E
|-----------------|-----------------|-----------------|-----------------|
|-----------------|-----1-------1---|-----1-------1---|-----------------|
|-----------------|-3-3---3-3-3---3-|-3-3---3-3-3---3-|-----------------|
|-3-3-5-3-3-3-5-3-|-1-1-1-1-1-1-1-1-|-1-1-1-1-1-1-1-1-|-3-3-5-3-3-3-5-3-|
|-1-1-1-1-1-1-1-1-|-----------------|-----------------|-1-1-1-1-1-1-1-1-|
|-----------------|-----------------|-----------------|-----------------|


  E E E E E E E E   E E E E E E E E   E E E E E E E E   E E E E E E E E
|-----------------|-----------------|-----------------|-----------------|
|-----------------|-----------------|-----------------|-----------------|
|-----------------|-----------------|-----------------|-----------------|
|-3-3-5-3-3-3-5-3-|-----0-------0---|-----0-------0---|-3-3-5-3-3-3-5-3-|
|-1-1-1-1-1-1-1-1-|-3-3---3-3-3---3-|-3-3---3-3-3---3-|-1-1-1-1-1-1-1-1-|
|-----------------|-1-1-1-1-1-1-1-1-|-1-1-1-1-1-1-1-1-|-----------------|


  E E E E E E E E   E E E E E E E E   E E E E E E E E   E E E E E E E E
|-----------------|-----------------|-----------------|-----------------|
|-----------------|-----------------|-----------------|-----------------|
|-----------------|-----------------|-----------------|-----------------|
|-3-3-5-3-3-3-5-3-|-3-3-5-3-3-3-5-3-|-3-3-5-3-3-3-5-3-|-3-3-5-3-3-3-5-3-|
|-1-1-1-1-1-1-1-1-|-1-1-1-1-1-1-1-1-|-1-1-1-1-1-1-1-1-|-1-1-1-1-1-1-1-1-|
|-----------------|-----------------|-----------------|-----------------|
|
| Gtr II
| W                 E E E E E E Q     W                 E E E E E E Q
|-----------------|---4-4-4-4-6-----|-----------------|---4-4-4-4-6-----|
|-----------------|---6-6-6-6-6-----|-----------------|---6-6-6-6-6-----|
|-----------------|-----------------|-----------------|-----------------|
|-----------------|-----------------|-----------------|-----------------|
|-----------------|-----------------|-----------------|-----------------|
|-----------------|-----------------|-----------------|-----------------|


  E E E E E E E E   E E E E E E E E   E E E E E E E E   E E E E E E E E
|-----------------|-----------------|-----------------|-----------------|
|-----------------|-----1-------1---|-----1-------1---|-----------------|
|-----------------|-3-3---3-3-3---3-|-3-3---3-3-3---3-|-----------------|
|-3-3-5-3-3-3-5-3-|-1-1-1-1-1-1-1-1-|-1-1-1-1-1-1-1-1-|-3-3-5-3-3-3-5-3-|
|-1-1-1-1-1-1-1-1-|-----------------|-----------------|-1-1-1-1-1-1-1-1-|
|-----------------|-----------------|-----------------|-----------------|
|
| W                 E E E E E E Q     W                 E E E E E E Q
|-----------------|---4-4-4-4-6-----|-----------------|---4-4-4-4-6-----|
|-----------------|---6-6-6-6-6-----|-----------------|---6-6-6-6-6-----|
|-----------------|-----------------|-----------------|-----------------|
|-----------------|-----------------|-----------------|-----------------|
|-----------------|-----------------|-----------------|-----------------|
|-----------------|-----------------|-----------------|-----------------|


  E E E E E E E E   E E E E E E E E    E  E E E E E E E   E E E E E E E E
|-----------------|-----------------|-------------------|-----------------|
|-----------------|-----------------|-------------------|-----------------|
|-----------------|-----------------|-------------------|-----------------|
|-3-3-5-3-3-3-5-3-|-----0-------0---|-------0-------0---|-3-3-5-3-3-3-5-3-|
|-1-1-1-1-1-1-1-1-|-3-3---3-3-3---3-|--3--3---3-3-3---3-|-1-1-1-1-1-1-1-1-|
|-----------------|-1-1-1-1-1-1-1-1-|--1--1-1-1-1-1-1-1-|-----------------|
|
| W                 E E E E E E E E   +Q    Q   H         W
|-----------------|---4-4-4-4-6-----|-------------------|-----------------|
|-----------------|---6-6-6-6-6---8-|-(8)---------------|-----------------|
|-----------------|---------------8-|-(8)---------------|-----------------|
|-----------------|-----------------|-------------------|-----------------|
|-----------------|-----------------|-------------------|-----------------|
|-----------------|-----------------|-------------------|-----------------|


  E E E E E E E E   E E E E E E E E   E E E E E E E E   E E E E E E E E
|-----------------|-----------------|-----------------|-----------------|
|-----------------|-----------------|-----------------|-----------------|
|-----------------|-----------------|-----------------|-----------------|
|-3-3-5-3-3-3-5-3-|-3-3-5-3-3-3-5-3-|-3-3-5-3-3-3-5-3-|-3-3-5-3-3-3-5-3-|
|-1-1-1-1-1-1-1-1-|-1-1-1-1-1-1-1-1-|-1-1-1-1-1-1-1-1-|-1-1-1-1-1-1-1-1-|
|-----------------|-----------------|-----------------|-----------------|


  E E E E E E E E   E E E E E E E E   E E E E E E E E   E E E E E E E E
|-----------------|-----------------|-----------------|-----------------|
|-----------------|-----1-------1---|-----1-------1---|-----------------|
|-----------------|-3-3---3-3-3---3-|-3-3---3-3-3---3-|-----------------|
|-3-3-5-3-3-3-5-3-|-1-1-1-1-1-1-1-1-|-1-1-1-1-1-1-1-1-|-3-3-5-3-3-3-5-3-|
|-1-1-1-1-1-1-1-1-|-----------------|-----------------|-1-1-1-1-1-1-1-1-|
|-----------------|-----------------|-----------------|-----------------|


  E E E E E E E E   E E E E E E E E   E E E E E E E E   E E E E E E E E
|-----------------|-----------------|-----------------|-----------------|
|-----------------|-----------------|-----------------|-----------------|
|-----------------|-----------------|-----------------|-----------------|
|-3-3-5-3-3-3-5-3-|-----0-------0---|-----0-------0---|-3-3-5-3-3-3-5-3-|
|-1-1-1-1-1-1-1-1-|-3-3---3-3-3---3-|-3-3---3-3-3---3-|-1-1-1-1-1-1-1-1-|
|-----------------|-1-1-1-1-1-1-1-1-|-1-1-1-1-1-1-1-1-|-----------------|


  E E E E E E E E   E E E E E E E E   E E E E E E E E   E E E E E E E E
|-----------------|-----------------|-----------------|-----------------|
|-----------------|-----------------|-----------------|-----------------|
|-----------------|-----------------|-----------------|-----------------|
|-3-3-5-3-3-3-5-3-|-3-3-5-3-3-3-5-3-|-3-3-5-3-3-3-5-3-|-3-3-5-3-3-3-5-3-|
|-1-1-1-1-1-1-1-1-|-1-1-1-1-1-1-1-1-|-1-1-1-1-1-1-1-1-|-1-1-1-1-1-1-1-1-|
|-----------------|-----------------|-----------------|-----------------|
|
| Gtr II
| W                 E E E E E E E E   W                 E E E E E E E E
|-----------------|-----------------|-----------------|-----------------|
|-----------------|-----6-6-4-6-4---|-----------------|---4-6-6-4-6-4---|
|-----------------|---8-------------|-----------------|-----------------|
|-----------------|-----------------|-----------------|-----------------|
|-----------------|-----------------|-----------------|-----------------|
|-----------------|-----------------|-----------------|-----------------|


  E E E E E E E E   E E E E E E E E   E E E E E E E E   E E E E E E E E
|-----------------|-----------------|-----------------|-----------------|
|-----------------|-----1-------1---|-----1-------1---|-----------------|
|-----------------|-3-3---3-3-3---3-|-3-3---3-3-3---3-|-----------------|
|-3-3-5-3-3-3-5-3-|-1-1-1-1-1-1-1-1-|-1-1-1-1-1-1-1-1-|-3-3-5-3-3-3-5-3-|
|-1-1-1-1-1-1-1-1-|-----------------|-----------------|-1-1-1-1-1-1-1-1-|
|-----------------|-----------------|-----------------|-----------------|
|
| W                 E E E E E E E E   W                 E E E E E E E E
|-----------------|-----------------|-----------------|-----------------|
|-----------------|---4-6-6-4-6-4---|-----------------|---4-6-6-4-6-4---|
|-----------------|-----------------|-----------------|-----------------|
|-----------------|-----------------|-----------------|-----------------|
|-----------------|-----------------|-----------------|-----------------|
|-----------------|-----------------|-----------------|-----------------|


  E E E E E E E E   E E E E E E E E   E E E E E E E E   E E E E E E E E
|-----------------|-----------------|-----------------|-----------------|
|-----------------|-----------------|-----------------|-----------------|
|-----------------|-----------------|-----------------|-----------------|
|-3-3-5-3-3-3-5-3-|-----0-------0---|-----0-------0---|-3-3-5-3-3-3-5-3-|
|-1-1-1-1-1-1-1-1-|-3-3---3-3-3---3-|-3-3---3-3-3---3-|-1-1-1-1-1-1-1-1-|
|-----------------|-1-1-1-1-1-1-1-1-|-1-1-1-1-1-1-1-1-|-----------------|
|
| W                 E E E E E E E E   E E E E H         W
|-----------------|-----------------|-----------------|-----------------|
|-----------------|---4-6-6-4-6-4-6-|-4-6-4-----------|-----------------|
|-----------------|-----------------|-----------------|-----------------|
|-----------------|-----------------|-----------------|-----------------|
|-----------------|-----------------|-----------------|-----------------|
|-----------------|-----------------|-----------------|-----------------|


  H    E E E E   E E E E E E E E   E E E E E E E E   E E E E E E E E
|----------1-3-|-6-6-6-6-6-------|-6-6-6-6-6-------|-6-------6-------|
|--------3-----|-6-6-6-6-6-8-6---|-6-6-6-6-6-8-6---|-6-8-6---6-8-6---|
|--------------|-----------8-7---|-----------8-7---|---8-7-----8-7---|
|--------------|---------------8-|---------------8-|-------8-------8-|
|--------------|-----------------|-----------------|-----------------|
|--------------|-----------------|-----------------|-----------------|


  E E E E E E E E   E E  E E E E  E E   E E  E E E E  E E   E E E E E E E E
|-6---6---6---6---|-------------------|-------------------|-----------------|
|-6---6---6---6---|-------------------|-------------------|-----------------|
|-----------------|-------------------|-------------------|-----------------|
|-----------------|-8-8-10-8-8-8-10-8-|-8-8-10-8-8-8-10-8-|-----5-------5---|
|-----------------|-6-6--6-6-6-6--6-6-|-6-6--6-6-6-6--6-6-|-8-8---8-8-8---8-|
|-----------------|-------------------|-------------------|-6-6-6-6-6-6-6-6-|
|
| Gtr II
| W                 E E  E E E E  Q     E E  E E Q    E E   E E E E E E E E
|-----------------|--------6-4----8---|---------------6-6-|-6-------6-6-6-6-|
|-----------------|---4---------------|-9-8--6-4-3----6-6-|-6-8-6---6-6-6-6-|
|-----------------|-------------------|-------------------|-------7---------|
|-----------------|-------------------|-------------------|-----------------|
|-----------------|-------------------|-------------------|-----------------|
|-----------------|-------------------|-------------------|-----------------|


  E E E E E E E E   E E E E E E E E
|-----------------|-----------------|
|-----------------|-----------------|
|-----------------|-----------------|
|-----5-------5---|-----0-------0---|
|-8-8---8-8-8---8-|-3-3---3-3-3---3-|
|-6-6-6-6-6-6-6-6-|-1-1-1-1-1-1-1-1-|
|
| E E E E E E E E   E E E E E E E E
|-6-------6-------|-6-6-6-6-6-------|
|-6-8-6---6-8-6---|-6-6-6-6-6-8-6---|
|-------7-------7-|---------------7-|
|-----------------|-----------------|
|-----------------|-----------------|
|-----------------|-----------------|


  E E  E  E  E  E  E  E    E  E E E E E E E
|-----------------------|-------------------|
|-----------------------|-------------------|
|-----------------------|-------------------|
|------0-----------0----|--3--3-5-3-3-3-5-3-|
|-3-3-----3--3--3-----3-|--1--1-1-1-1-1-1-1-|
|-1-1--1--1--1--1--1--1-|-------------------|
|
| E E +E  E +E  E +E  E   +E  E Q   E E Q
|-----------------------|-------------------|
|---8-(8)-8-(8)-8-(8)-8-|-(8)-------8-6-----|
|---8-(8)-8-(8)-8-(8)-8-|-(8)-------8-6-----|
|-----------------------|-------8-------8---|
|-----------------------|-------------------|
|-----------------------|-------------------|


  E E E E E E E E   E E E E E E E E   E E E E E E E E   E E E E E E E E
|-----------------|-6-6-6-6-6-------|-6-6-6-6-6-------|-6-------6-------|
|-----------------|-6-6-6-6-6-8-6---|-6-6-6-6-6-8-6---|-6-8-6---6-8-6---|
|-----------------|-----------8-7---|-----------8-7---|---8-7-----8-7---|
|-3-3-5-3-3-3-5-3-|---------------8-|---------------8-|-------8-------8-|
|-1-1-1-1-1-1-1-1-|-----------------|-----------------|-----------------|
|-----------------|-----------------|-----------------|-----------------|
|
| E E Q   H         W                 W                 W
|-----------------|-----------------|-----------------|-----------------|
|-----------------|-----------------|-----------------|-----------------|
|-7---------------|-----------------|-----------------|-----------------|
|-8---------------|-----------------|-----------------|-----------------|
|-----------------|-----------------|-----------------|-----------------|
|-----------------|-----------------|-----------------|-----------------|


  E E +E  E +E  E +E  E    E  E  E  E  E  E  E  E
|-----------------------|-------------------------|
|---8-(8)-8-(8)-8-(8)---|-------------------------|
|---8-(8)-8-(8)-8-(8)---|-------------------------|
|-----------------------|--8--8-10----------10----|
|-----------------------|----------13-13-13----13-|
|-----------------------|-11-11-11-11-11-11-11-11-|
|
| W                        Q     E  E  E  E  E  E
|-----------------------|-------------------------|
|-----------------------|--------9----11--9----11-|
|-----------------------|-------10----10-10----10-|
|-----------------------|-------------------------|
|-----------------------|-------------------------|
|-----------------------|-------------------------|


   E  E  E  E  E  E  E  E    E E  E E  E  E E  E
|-------------------------|----------------------|
|-------------------------|----------------------|
|-------------------------|----------------------|
|-------10----------10----|--3-3--5-3--3--3-5--3-|
|-13-13----13-13-13----13-|--1-1--1-1--1--1-1--1-|
|-11-11-11-11-11-11-11-11-|----------------------|
|
|  E  E  E  E  E  E  E  E    E E  E E  E  E E  E
|-------------------------|----------------------|
|--9----11--9----11--9----|-11----9---11--9---11-|
|-10----10-10----10-10----|-10---10---10-10---10-|
|-------------------------|----------------------|
|-------------------------|----------------------|
|-------------------------|----------------------|


   E E  E  E E  E  E  E   E E E E E E E E   E E E E E E E E   E E E E E E E E
|-----------------------|-----------------|-----------------|-----------------|
|-----------------------|-----------------|-----------------|-----------------|
|-----------------------|-----------------|-----------------|-----------------|
|--3-3--5--3-3--3--5--3-|-----0-------0---|-----0-------0---|-3-3-5-3-3-3-5-3-|
|--1-1--1--1-1--1--1--1-|-3-3---3-3-3---3-|-3-3---3-3-3---3-|-1-1-1-1-1-1-1-1-|
|-----------------------|-1-1-1-1-1-1-1-1-|-1-1-1-1-1-1-1-1-|-----------------|
|
|  E E  E  E E  E  E  E   E E E E E E E E   E E E E E E E E   Q   E E E E E E
|-----------------------|-9-6-8-6-4-3-1-1-|-----------------|-----6---6-6-----|
|--9---11--9---11-11-11-|-8-6-8-6-5-4-2-3-|-4-6-4-6-4-6-4-2-|-3---6---6-6-8-6-|
|-10---10-10---10-10-10-|-----------------|-----------------|-------------8-6-|
|-----------------------|-----------------|-----------------|-----------------|
|-----------------------|-----------------|-----------------|-----------------|
|-----------------------|-----------------|-----------------|-----------------|


  E E E E E E E E   E E E E E E E E   E E E E E E E E   E E E E E E E E
|-----------------|-----------------|-----------------|-----------------|
|-----------------|-----------------|-----------------|-----------------|
|-----------------|-----------------|-----------------|-----------------|
|-3-3-5-3-3-3-5-3-|-3-3-5-3-3-3-5-3-|-3-3-5-3-3-3-5-3-|-3-3-5-3-3-3-5-3-|
|-1-1-1-1-1-1-1-1-|-1-1-1-1-1-1-1-1-|-1-1-1-1-1-1-1-1-|-1-1-1-1-1-1-1-1-|
|-----------------|-----------------|-----------------|-----------------|
|
| Q   Q   H         W                 W                 W
|-----------------|-----------------|-----------------|-----------------|
|-----------------|-----------------|-----------------|-----------------|
|-7---------------|-----------------|-----------------|-----------------|
|-----------------|-----------------|-----------------|-----------------|
|-----------------|-----------------|-----------------|-----------------|
|-----------------|-----------------|-----------------|-----------------|


  E E E E E E E E   E E E E E E E E   E E E E E E E E   E E E E E E E E
|-----------------|-----------------|-----------------|-----------------|
|-----------------|-----1-------1---|-----1-------1---|-----------------|
|-----------------|-3-3---3-3-3---3-|-3-3---3-3-3---3-|-----------------|
|-3-3-5-3-3-3-5-3-|-1-1-1-1-1-1-1-1-|-1-1-1-1-1-1-1-1-|-3-3-5-3-3-3-5-3-|
|-1-1-1-1-1-1-1-1-|-----------------|-----------------|-1-1-1-1-1-1-1-1-|
|-----------------|-----------------|-----------------|-----------------|


  E E E E E E E E   E E E E E E E E   E E E E E E E E   E E E E E E E E
|-----------------|-----------------|-----------------|-----------------|
|-----------------|-----------------|-----------------|-----------------|
|-----------------|-----------------|-----------------|-----------------|
|-3-3-5-3-3-3-5-3-|-----0-------0---|-----0-------0---|-3-3-5-3-3-3-5-3-|
|-1-1-1-1-1-1-1-1-|-3-3---3-3-3---3-|-3-3---3-3-3---3-|-1-1-1-1-1-1-1-1-|
|-----------------|-1-1-1-1-1-1-1-1-|-1-1-1-1-1-1-1-1-|-----------------|


  E E E E E E E E   E E E E E  E  E  E
|-----------------|--------------------|
|-----------------|--------------------|
|-----------------|--------------------|
|-3-3-5-3-3-3-5-3-|-3-3-5-3-3--3--5--3-|
|-1-1-1-1-1-1-1-1-|-1-1-1-1-1--1--1--1-|
|-----------------|--------------------|
|
| Gtr II
| W                 H       E  E  E  E
|-----------------|--------------------|
|-----------------|------------9--9--9-|
|-----------------|-----------10-10-10-|
|-----------------|--------------------|
|-----------------|--------------------|
|-----------------|--------------------|


   E  E  E E E E E E   E E E E E  E  E  E
|--------------------|--------------------|
|--------------------|--------------------|
|--------------------|--------------------|
|--3--3--5-3-3-3-5-3-|-3-3-5-3-3--3--5--3-|
|--1--1--1-1-1-1-1-1-|-1-1-1-1-1--1--1--1-|
|--------------------|--------------------|
|
|  E  E  E E H         H       E  E  E  E
|--------------------|--------------------|
|--9--9--9-----------|------------9--9--9-|
|-10-10-10-----------|-----------10-10-10-|
|--------------------|--------------------|
|--------------------|--------------------|
|--------------------|--------------------|


   E  E  E E E E E E   E E E E E  E  E  E
|--------------------|--------------------|
|--------------------|-----1---------1----|
|--------------------|-3-3---3-3--3-----3-|
|--3--3--5-3-3-3-5-3-|-1-1-1-1-1--1--1--1-|
|--1--1--1-1-1-1-1-1-|--------------------|
|--------------------|--------------------|
|
|  E  E  E E H         H       E  E  E  E
|--------------------|--------------------|
|--9--9--9-----------|------------9--9--9-|
|-10-10-10-----------|-----------10-10-10-|
|--------------------|--------------------|
|--------------------|--------------------|
|--------------------|--------------------|


   E  E  E E E E E E   E E E E E  E  E  E
|--------------------|--------------------|
|--------1-------1---|--------------------|
|--3--3----3-3-3---3-|--------------------|
|--1--1--1-1-1-1-1-1-|-3-3-5-3-3--3--5--3-|
|--------------------|-1-1-1-1-1--1--1--1-|
|--------------------|--------------------|
|
|  E  E  E E H         H       E  E  E  E
|--------------------|--------------------|
|--9--9--9-----------|------------9--9--9-|
|-10-10-10-----------|-----------10-10-10-|
|--------------------|--------------------|
|--------------------|--------------------|
|--------------------|--------------------|


   E  E  E E E  E E  E   E E E E E  E E  E   E E E E E E E E   E E Q  E E Q
|----------------------|-------------------|-----------------|---------------|
|----------------------|-------------------|-----------------|---------------|
|----------------------|-------------------|-----------------|-3-3----3-3----|
|--3--3--5-3-3--3-5--3-|-----0--------0----|-----0-------0---|-3-3-5--3-3-5--|
|--1--1--1-1-1--1-1--1-|-3-3---3-3--3----3-|-3-3---3-3-3---3-|---------------|
|----------------------|-1-1-1-1-1--1-1--1-|-1-1-1-1-1-1-1-1-|---------------|
|
|  E  E  E E E  E E  E   H       E  E E  E   W                 W
|----------------------|-------------------|-----------------|---------------|
|--9--9--9------9---11-|------------9----9-|-----------------|---------------|
|-10-10-10-----10----8-|-----------10---10-|-----------------|---------------|
|----------------------|-------------------|-----------------|---------------|
|----------------------|-------------------|-----------------|---------------|
|----------------------|-------------------|-----------------|---------------|


  E E E E +H
|----------------*|
|----------------*|
|-3-3---3-(3)----*|
|-3-3-5-3-(3)----*|
|----------------*|
|----------------*|




--------------------------------------------------------------------------------


Duration Legend
---------------
W - whole; H - half; Q - quarter; E - 8th; S - 16th; T - 32nd; X - 64th; a - acciaccatura
+ - note tied to previous; . - note dotted; .. - note double dotted
Uncapitalized letters represent notes that are staccato (1/2 duration)
Irregular groupings are notated above the duration line
Duration letters will always appear directly above the note/fret number it represents the
duration for.  Duration letters with no fret number below them represent rests.  Multi-
bar rests are notated in the form Wxn, where n is the number of bars to rest for.  Low
melody durations appear below the staff

Tablature Legend
----------------
 h   - hammer-on
 p   - pull-off
 b   - bend
 pb  - pre-bend
 r   - bend release (if no number after the r, then release immediately)
 /\  - slide into or out of (from/to "nowhere")
 s   - legato slide
 S   - shift slide
 - natural harmonic
[n]  - artificial harmonic
n(n) - tapped harmonic
 ~   - vibrato
 tr  - trill
 T   - tap
 TP  - trem. picking
 PM  - palm muting
\n/  - tremolo bar dip; n = amount to dip
 \n  - tremolo bar down
 n/  - tremolo bar up
/n\  - tremolo bar inverted dip
 =   - hold bend; also acts as connecting device for hammers/pulls
 <> - volume swell (louder/softer)
 x   - on rhythm slash represents muted slash
 o   - on rhythm slash represents single note slash

Misc Legend
-----------
 |  - bar
||  - double bar
||o - repeat start
o|| - repeat end
*|  - double bar (ending)
 :  - bar (freetime)
 $  - Segno
 &  - Coda
Tempo markers -  = BPM(8/16=s8/s16), where s8 = swing 8ths, s16 = swing 16ths



            
            
Suggest correction
Creating personal tab
Creating personal tab
You can edit any tab online and save it as your Personal.

You can edit, replace or remove any tab part or add personal notes – all changes will be seen only by you.

Personal tabs can be accessed anytime from any device, even offline.
Learn more »
comments
print report bad tab
2 comments total.
-1 reply
DOA12345 208 Mar 06, 2008 11:26 AM

its not wrong or anything but you made somethings harder than they actually are

0 reply
Texasboy 274 Jun 02, 2013 03:04 AM

Intro is actually played on higher fret

guest
You may want to rate the tab now too:
select rating
Wanna post a correction for this tab? Suggest correction