Oops, an error
Loading. Please wait.

Feels So Good tab

version 2
version 2

Whole song

  • This is the ultimate version all your tabs are inc... Show more

Interactive

649 views 12 this week
no commentswrite comment
1 2 3 4 5
2 more votes to show rating
add to favorites
×
Save as Personal and add changes to this tab that will be seen only by you. Learn more ›
×
You can save this tab as Personal to edit and correct it or add notes. All changes will be seen only by you. Learn more »
launch autoscroll
font size
0
reset
how to read this tab
guitar tuner
backing track
0:00
0:00
edit
Autoscroll
slow
fast
+/-
esc
set tempo
stop
Author
Difficulty
About this tab version
This is the ultimate version all your tabs are incomplete or they all are wrong, This is good, you can check for yourselfs motherfuckers, enjoy it. Was this info helpful? Yes No
Chuck Mangione - Feel So Good (Extended version 9:31)
Tablatura por Aldoalain, disfrutenla perros

e|-----------------------5------------------------------------------------------------|
B|-------8-8-----------6-6------------------------------5------------5-------------10-|
G|-----5---5---------5---5-------7-------------9--------5----------5------------10----|
D|---7-------------7-----------0---8--8-------10------5---5------9-----------12-------|
A|-8-----------7-5-------------------10----10----10------------7----------------------|
E|--------------------------3------------8----------6--------5-----------10-----------|
                                                                             
e|----------------------------6-------------------------------------------------------|
B|---------8-------8--------8-8----------10-------11-----10---------11----------------|
G|---------7-------7------6------------10---------10-----10---------10----------------|
D|-----7-8-8-----8------7------------12------------------12------12-------------------|
A|---5---------7-------------------------------13--------------13---------------------|
E|-3-----------0------5----------10---------11--------10-----11-----------------------|

e|-----5-------8p5------------------5-------------------3-----------------------------|
B|-----6-----6-----6-8p6-----------6---------6-6--------3------3-----5-----6-----7----|
G|-----5----5-------5---5-7p5-----7---------7--7-------3------3-----5-----7-----7-----|
D|---7-----5-------------5-----0-----------8---8------5------5-----7-----8-----8------|
A|-8------6-------------------------------8----------5--------------------------------|
E|-------------------------------------8-6-------5-3-------3-----5-----6-----7--------|

e|----------------5-----------6-----5-------------------------------------------------|
B|-------8--------6----------4------3-------------------------------------------------|
G|------10--------5---------5-------3-------------------------------------------------|
D|-----8--------7---------4---------3-------------------------------------------------|
A|---10-------8-----7-6-5---------5---------------------------------------------------|
E|-8----------------------------3-----------------------------------------------------|

                              x14
e|-5---5-5-5-5--5---5-5-5-5--5-5-|-5--------------------------------------------------|
B|-3---3-3-3-3--3---3-3-3-3--3-3-|-3--------------------------------------------------|
G|-3---3-3-3-3--3---3-3-3-3--3-3-|-3--------------------------------------------------|
D|-3---3-3-3-3--3---3-3-3-3--3-3-|-3--------------------------------------------------|
A|-------------------------------|----------------------------------------------------|
E|-------------------------------|----------------------------------------------------|

e|-5-5-x-x-5-5-x-x-5-5-x-x-5-5-x-x--5-5-x-x-5-5-x-x-5-5-x-x-5-5-x-x--3-3-x-x-3-3-x-x--|
B|-6-6-x-x-6-6-x-x-6-6-x-x-6-6-x-x--6-6-x-x-6-6-x-x-6-6-x-x-6-6-x-x--3-3-x-x-3-3-x-x--|
G|-5-5-x-x-5-5-x-x-5-5-x-x-5-5-x-x--7-7-x-x-7-7-x-x-7-7-x-x-7-7-x-x--3-3-x-x-3-3-x-x--|
D|-7-7-x-x-7-7-x-x-7-7-x-x-7-7-x-x--7-7-x-x-7-7-x-x-7-7-x-x-7-7-x-x--5-5-x-x-5-5-x-x--|
A|-8-8-x-x-8-8-x-x-8-8-x-x-8-8-x-x--5-5-x-x-5-5-x-x-5-5-x-x-5-5-x-x--x-x-x-x-x-x-x-x--|
E|-------------------------------------------------------------------3-3-x-x-3-3-x-x--|

e|-3-3-x-x-3-3-x-x---8--8-x-x--8--8-x-x--8--8-x-x--8--8-x--5-5-x-x-5-5-x-x-5-5-x-x-5-5-x-x-|
B|-3-3-x-x-3-3-x-x---8--8-x-x--8--8-x-x--8--8-x-x--8--8-x--5-5-x-x-5-5-x-x-5-5-x-x-5-5-x-x-|
G|-3-3-x-x-3-3-x-x---8--8-x-x--8--8-x-x--8--8-x-x--8--8-x--5-5-x-x-5-5-x-x-5-5-x-x-5-5-x-x-|
D|-5-5-x-x-5-5-x-x---9--9-x-x--9--9-x-x--9--9-x-x--9--9-x--7-7-x-x-7-7-x-x-7-7-x-x-7-7-x-x-|
A|-x-x-x-x-x-x-x-x--10-10-x-x-10-10-x-x-10-10-x-x-10-10-x--x-x-x-x-x-x-x-x-x-x-x-x-x-x-x-x-|
E|-3-3-x-x-3-3-x-x---8--8-x-x--8--8-x-x--8--8-x-x--8--8-x--5-5-x-x-5-5-x-x-5-5-x-x-5-5-x-x-|

e|-5-5-x-x-5-5-x-x-5-5-x-x-5-5-x-x--3-3-x-x-3-3-x-x-3-3-x-x-3-3-x-x-------------------|
B|-6-6-x-x-6-6-x-x-6-6-x-x-6-6-x-x--3-3-x-x-3-3-x-x-3-3-x-x-3-3-x-x--8-8-x-x-8-8-x-x--|
G|-7-7-x-x-7-7-x-x-7-7-x-x-7-7-x-x--3-3-x-x-3-3-x-x-3-3-x-x-3-3-x-x--7-7-x-x-7-7-x-x--|
D|-7-7-x-x-7-7-x-x-7-7-x-x-7-7-x-x--5-5-x-x-5-5-x-x-5-5-x-x-5-5-x-x--8-8-x-x-8-8-x-x--|
A|-5-5-x-x-5-5-x-x-5-5-x-x-5-5-x-x--x-x-x-x-x-x-x-x-x-x-x-x-x-x-x-x--7-7-x-x-7-7-x-x--|
E|----------------------------------3-3-x-x-3-3-x-x-3-3-x-x-3-3-x-x-------------------|

e|----------------------5-5-x-x-5-5-x-x-5-5-x-x-5-x--6-6-x-x-6-6-x-x-6-6-x-x-6-x------|
B|-10-10-x-x-10-10-x-x--6-6-x-x-6-6-x-x-6-6-x-x-6-x--8-8-x-x-8-8-x-x-8-8-x-x-8-x------|
G|-12-12-x-x-12-12-x-x--7-7-x-x-7-7-x-x-7-7-x-x-7-x--8-8-x-x-8-8-x-x-8-8-x-x-8-x------|
D|-11-11-x-x-11-11-x-x--7-7-x-x-7-7-x-x-7-7-x-x-7-x--8-8-x-x-8-8-x-x-8-8-x-x-8-x------|
A|-12-12-x-x-12-12-x-x--5-5-x-x-5-5-x-x-5-5-x-x-5-x--6-6-x-x-6-6-x-x-6-6-x-x-6-x------|
E|------------------------------------------------------------------------------------|

e|-5-5-x-x-5-5-x-x-5-5-x-x-5-x--6-6-x-x-6-6-x-x-6-6-x-x-6-x-x-------------------------|
B|-6-6-x-x-6-6-x-x-6-6-x-x-6-x--8-8-x-x-8-8-x-x-8-8-x-x-8-x-x-------------------------|
G|-7-7-x-x-7-7-x-x-7-7-x-x-7-x--8-8-x-x-8-8-x-x-8-8-x-x-8-x-x-------------------------|
D|-7-7-x-x-7-7-x-x-7-7-x-x-7-x--8-8-x-x-8-8-x-x-8-8-x-x-8-x-x-------------------------|
A|-5-5-x-x-5-5-x-x-5-5-x-x-5-x--6-6-x-x-6-6-x-x-6-6-x-x-6-x-x-------------------------|
E|------------------------------------------------------------------------------------|

e|-13-13-x-x-13-13-x-x-13-13-x-x-13-13-x-x-13-13-x-x-13-13-x-x-13-13-x-x-13-13--------|
B|-13-13-x-x-13-13-x-x-13-13-x-x-13-13-x-x-13-13-x-x-13-13-x-x-13-13-x-x-13-13--------|
G|-14-14-x-x-14-14-x-x-14-14-x-x-14-14-x-x-14-14-x-x-14-14-x-x-14-14-x-x-14-14--------|
D|-15-15-x-x-15-15-x-x-15-15-x-x-15-15-x-x-15-15-x-x-15-15-x-x-15-15-x-x-15-15--------|
A|------------------------------------------------------------------------------------|
E|------------------------------------------------------------------------------------|

e|-10-10-x-x-10-10-x-x-10-10-x-x-10-10-x-x-10-10-x-x-10-10-x-x-10-10-x-x-10-10--------|
B|-11-11-x-x-11-11-x-x-11-11-x-x-11-11-x-x-11-11-x-x-11-11-x-x-11-11-x-x-11-11--------|
G|-10-10-x-x-10-10-x-x-10-10-x-x-10-10-x-x-10-10-x-x-10-10-x-x-10-10-x-x-10-10--------|
D|-12-12-x-x-12-12-x-x-12-12-x-x-12-12-x-x-12-12-x-x-12-12-x-x-12-12-x-x-12-12--------|
A|------------------------------------------------------------------------------------|
E|------------------------------------------------------------------------------------|

e|-3-3-x-x-3-3-x-x-3-3-x-x-3-3-x-x--x-3--x-5--x-6--x-7--8--8--8-----------------------|
B|-3-3-x-x-3-3-x-x-3-3-x-x-3-3-x-x--x-3--x-5--x-6--x-7--8--8--8-----------------------|
G|-3-3-x-x-3-3-x-x-3-3-x-x-3-3-x-x--x-3--x-5--x-7--x-7-10-10-10-----------------------|
D|-5-5-x-x-5-5-x-x-5-5-x-x-5-5-x-x--x-5--x-7--x-8--x-8--8--8--8-----------------------|
A|-----------------------------------------------------10-10-10-----------------------|
E|------------------------------------------------------8--8--8-----------------------|

e|---------------------------------------------------------------8-8------------------|
B|-------10-9-8-7-----10-11--8-10-11-10--11--8--11-10--10-9-8-7------10-11--8-10-11-10|
G|----------------8-7-----------------------------------------------------------------|
D|-7--7-------------------------------------------------------------------------------|
A|------------------------------------------------------------------------------------|
E|------------------------------------------------------------------------------------|

e|---------------------------------------------------------------5-6p5----------------|
B|----8-6--5h6-----------6p5h6p5--------------8-6--5-6-----------------8--------------|
G|-5------------5-3-2h3----------5\2-/5-\2-2------------5-3-2-------------------------|
D|------------------------------------------------------------5-----------------------|
A|------------------------------------------------------------------------------------|
E|------------------------------------------------------------------------------------|

e|------------------------------13----------------------------------------------------|
B|---/10--8--8-10-6---6---6--/13----8p6h8-6--8\6/8\6--8-6-8p6------6---8---6/8\6------|
G|-------------------------------------------------------------5-7---7---7------------|
D|-7----------------------------------------------------------------------------------|
A|------------------------------------------------------------------------------------|
E|------------------------------------------------------------------------------------|

e|-----8-8-6-5-6------------------------------------------------------11-10-----------|
B|---6-----------6h8----11-11--10-8--10h11--10-8-8-10-----10-11-12-13-------10-11-----|
G|-5--------------------------------------------------10------------------------------|
D|-------------------10---------------------------------------------------------------|
A|------------------------------------------------------------------------------------|
E|------------------------------------------------------------------------------------|

e|----------------------------------------------/17-18--15-17-18-17-------------------|
B|-8-10-11-10--11--8--11-10~--------------16-15---------------------------------------|
G|----------------------------14-15-16-17---------------------------------------------|
D|------------------------------------------------------------------------------------|
A|------------------------------------------------------------------------------------|
E|------------------------------------------------------------------------------------|

e|-5-5-x-x-5-5-x-x-5-5-x-x-5-5-x-x--5-5-x-x-5-5-x-x-5-5-x-x-5-5-x-x--3-3-x-x-3-3-x-x--|
B|-6-6-x-x-6-6-x-x-6-6-x-x-6-6-x-x--6-6-x-x-6-6-x-x-6-6-x-x-6-6-x-x--3-3-x-x-3-3-x-x--|
G|-5-5-x-x-5-5-x-x-5-5-x-x-5-5-x-x--7-7-x-x-7-7-x-x-7-7-x-x-7-7-x-x--3-3-x-x-3-3-x-x--|
D|-7-7-x-x-7-7-x-x-7-7-x-x-7-7-x-x--7-7-x-x-7-7-x-x-7-7-x-x-7-7-x-x--5-5-x-x-5-5-x-x--|
A|-8-8-x-x-8-8-x-x-8-8-x-x-8-8-x-x--5-5-x-x-5-5-x-x-5-5-x-x-5-5-x-x--x-x-x-x-x-x-x-x--|
E|-------------------------------------------------------------------3-3-x-x-3-3-x-x--|

e|-3-3-x-x-3-3-x-x---8--8-x-x--8--8-x-x--8--8-x-x--8--8-x--5-5-x-x-5-5-x-x-5-5-x-x-5-5-x-x-|
B|-3-3-x-x-3-3-x-x---8--8-x-x--8--8-x-x--8--8-x-x--8--8-x--5-5-x-x-5-5-x-x-5-5-x-x-5-5-x-x-|
G|-3-3-x-x-3-3-x-x---8--8-x-x--8--8-x-x--8--8-x-x--8--8-x--5-5-x-x-5-5-x-x-5-5-x-x-5-5-x-x-|
D|-5-5-x-x-5-5-x-x---9--9-x-x--9--9-x-x--9--9-x-x--9--9-x--7-7-x-x-7-7-x-x-7-7-x-x-7-7-x-x-|
A|-x-x-x-x-x-x-x-x--10-10-x-x-10-10-x-x-10-10-x-x-10-10-x--x-x-x-x-x-x-x-x-x-x-x-x-x-x-x-x-|
E|-3-3-x-x-3-3-x-x---8--8-x-x--8--8-x-x--8--8-x-x--8--8-x--5-5-x-x-5-5-x-x-5-5-x-x-5-5-x-x-|

e|-5-5-x-x-5-5-x-x-5-5-x-x-5-5-x-x--3-3-x-x-3-3-x-x-3-3-x-x-3-3-x-x-------------------|
B|-6-6-x-x-6-6-x-x-6-6-x-x-6-6-x-x--3-3-x-x-3-3-x-x-3-3-x-x-3-3-x-x--8-8-x-x-8-8-x-x--|
G|-7-7-x-x-7-7-x-x-7-7-x-x-7-7-x-x--3-3-x-x-3-3-x-x-3-3-x-x-3-3-x-x--7-7-x-x-7-7-x-x--|
D|-7-7-x-x-7-7-x-x-7-7-x-x-7-7-x-x--5-5-x-x-5-5-x-x-5-5-x-x-5-5-x-x--8-8-x-x-8-8-x-x--|
A|-5-5-x-x-5-5-x-x-5-5-x-x-5-5-x-x--x-x-x-x-x-x-x-x-x-x-x-x-x-x-x-x--7-7-x-x-7-7-x-x--|
E|----------------------------------3-3-x-x-3-3-x-x-3-3-x-x-3-3-x-x-------------------|

e|----------------------5-5-x-x-5-5-x-x-5-5-x-x-5-x--6-6-x-x-6-6-x-x-6-6-x-x-6-x------|
B|-10-10-x-x-10-10-x-x--6-6-x-x-6-6-x-x-6-6-x-x-6-x--8-8-x-x-8-8-x-x-8-8-x-x-8-x------|
G|-12-12-x-x-12-12-x-x--7-7-x-x-7-7-x-x-7-7-x-x-7-x--8-8-x-x-8-8-x-x-8-8-x-x-8-x------|
D|-11-11-x-x-11-11-x-x--7-7-x-x-7-7-x-x-7-7-x-x-7-x--8-8-x-x-8-8-x-x-8-8-x-x-8-x------|
A|-12-12-x-x-12-12-x-x--5-5-x-x-5-5-x-x-5-5-x-x-5-x--6-6-x-x-6-6-x-x-6-6-x-x-6-x------|
E|------------------------------------------------------------------------------------|

e|-5-5-x-x-5-5-x-x-5-5-x-x-5-x--6-6-x-x-6-6-x-x-6-6-x-x-6-x-x-------------------------|
B|-6-6-x-x-6-6-x-x-6-6-x-x-6-x--8-8-x-x-8-8-x-x-8-8-x-x-8-x-x-------------------------|
G|-7-7-x-x-7-7-x-x-7-7-x-x-7-x--8-8-x-x-8-8-x-x-8-8-x-x-8-x-x-------------------------|
D|-7-7-x-x-7-7-x-x-7-7-x-x-7-x--8-8-x-x-8-8-x-x-8-8-x-x-8-x-x-------------------------|
A|-5-5-x-x-5-5-x-x-5-5-x-x-5-x--6-6-x-x-6-6-x-x-6-6-x-x-6-x-x-------------------------|
E|------------------------------------------------------------------------------------|

e|-13-13-x-x-13-13-x-x-13-13-x-x-13-13-x-x-13-13-x-x-13-13-x-x-13-13-x-x-13-13--------|
B|-13-13-x-x-13-13-x-x-13-13-x-x-13-13-x-x-13-13-x-x-13-13-x-x-13-13-x-x-13-13--------|
G|-14-14-x-x-14-14-x-x-14-14-x-x-14-14-x-x-14-14-x-x-14-14-x-x-14-14-x-x-14-14--------|
D|-15-15-x-x-15-15-x-x-15-15-x-x-15-15-x-x-15-15-x-x-15-15-x-x-15-15-x-x-15-15--------|
A|------------------------------------------------------------------------------------|
E|------------------------------------------------------------------------------------|

e|-10-10-x-x-10-10-x-x-10-10-x-x-10-10-x-x-10-10-x-x-10-10-x-x-10-10-x-x-10-10--------|
B|-11-11-x-x-11-11-x-x-11-11-x-x-11-11-x-x-11-11-x-x-11-11-x-x-11-11-x-x-11-11--------|
G|-10-10-x-x-10-10-x-x-10-10-x-x-10-10-x-x-10-10-x-x-10-10-x-x-10-10-x-x-10-10--------|
D|-12-12-x-x-12-12-x-x-12-12-x-x-12-12-x-x-12-12-x-x-12-12-x-x-12-12-x-x-12-12--------|
A|------------------------------------------------------------------------------------|
E|------------------------------------------------------------------------------------|

e|-3-3-x-x-3-3-x-x-3-3-x-x-3-3-x-x--x-3--x-5--x-6--x-7--8--8--8-----------------------|
B|-3-3-x-x-3-3-x-x-3-3-x-x-3-3-x-x--x-3--x-5--x-6--x-7--8--8--8-----------------------|
G|-3-3-x-x-3-3-x-x-3-3-x-x-3-3-x-x--x-3--x-5--x-7--x-7-10-10-10-----------------------|
D|-5-5-x-x-5-5-x-x-5-5-x-x-5-5-x-x--x-5--x-7--x-8--x-8--8--8--8-----------------------|
A|-----------------------------------------------------10-10-10-----------------------|
E|------------------------------------------------------8--8--8-----------------------|

e|------------------------------------------------------------------------------------|
B|-------10-9-8-7-----10-11--8-10-11-10--11--8--11-10--10-9-8-7-----10-11--8-10-11-10-|
G|----------------8-7-------------------------------------------8-7-------------------|
D|-7--7-------------------------------------------------------------------------------|
A|------------------------------------------------------------------------------------|
E|------------------------------------------------------------------------------------|


  Solo
e|------------------------------------------------------------------------------------|
B|--------------------13-------------------------13---------------------------------13|
G|----10-10-10--12/14----/14--12-10--12-10-12/14----/14-12-10---10-10-10-12-10-12/14--|
D|-12---------------------------------------------------------------------------------|
A|------------------------------------------------------------------------------------|
E|------------------------------------------------------------------------------------|

e|------------------------------------------------------------------------------------|
B|--------------------------/15-15-13---15p13-15rp13-13-13----------------------------|
G|-/14-12p10-12--10-12-/9-9--------------------------------14-13p12p10-12-10----------|
D|------------------------------------------------------------------------------------|
A|------------------------------------------------------------------------------------|
E|------------------------------------------------------------------------------------|

e|------------------------------------------------------------------------------------|
B|-----------------------------------------------------------------------10-10--------|
G|-------9-10-9----------------------------------------------12-12--------------------|
D|-11h12--------12-------------------------------12-12-------------11h12--------------|
A|-----------------11p10----10-10-----------9h10-------11h12--------------------------|
E|-----------------------13-------13p9-10---------------------------------------------|

e|------------------------------------------------------------------------------------|
B|-------11-11---10-11-11-10--8-10/14-14-15--/15-15----------15-----------------11~---|
G|--------------------------------------------------13-14--------13p12p10-12p10-------|
D|-11h12--------------------------------------------------12--------------------------|
A|------------------------------------------------------------------------------------|
E|------------------------------------------------------------------------------------|

e|----------------------------------------------------------------------------13------|
B|-10-11p10-------10-11p10---13/15-15--13-15------------------------------------------|
G|---------10--10---------10-----------------13p12p10-12-12-10----10-------10---------|
D|-----------12------------------------------------------------12----11h12------------|
A|------------------------------------------------------------------------------------|
E|------------------------------------------------------------------------------------|

e|-11-13-/10-10-----------13-13-13-13----------------------------------10-13-12p11p10-|
B|--------------13-13-11\-10-11-12-13-11p10-11p10----10-11p10----10-11----------------|
G|------------------------------------------------12----------12----------------------|
D|------------------------------------------------------------------------------------|
A|------------------------------------------------------------------------------------|
E|------------------------------------------------------------------------------------|

e|-------------------------------------------12-15--15-13--13----13-15b-15b-15rp13----|
B|-11--------------------------------------13-----------------15----------------------|
G|----12-11-10----10--------12--------12-14-------------------------------------------|
D|-------------12----12-/14-----14-15-------------------------------------------------|
A|------------------------------------------------------------------------------------|
E|------------------------------------------------------------------------------------|

e|-------13-13-----13----13-15b-15--13--15--13--13\10----10---------10-13p10-13p10----|
B|-15p13-------x-x----15------------------------------------------11------------------|
G|----------------------------------------------------10----10--12--------------------|
D|------------------------------------------------------------------------------------|
A|------------------------------------------------------------------------------------|
E|------------------------------------------------------------------------------------|

e|-------12p8-12p8-------10p6-10p6----------------------------------8/9--11/12--------|
B|-----------------10--------------8p6-9p6-9p6----------------10/11-------------------|
G|-10-----------------10-----------------------7--------------------8/9--11/12--------|
D|----12-----------------------------------------9/10-10----8-10/11-------------------|
A|-------------------------------------------------------10---------------------------|
E|------------------------------------------------------------------------------------|

e|----8--8--------8--8----------------------------------13p10-13p10-------13p10-13p10-|
B|----9b-9b-------9b-9b--------------------------/10-13-------------13p10-------------|
G|-10--------10p8-------10----------------10-10---------------------------------------|
D|-------------------------9p8----8---------------------------------------------------|
A|-----------------------------11---11h12---------------------------------------------|
E|------------------------------------------------------------------------------------|

e|-------13p10-13p10-------16p13-16p13-------------13----------------13---------------|
B|-13p10-------------13p10-------------16p13-14h15----15p13----13h15----15p13---------|
G|----------------------------------------------------------15----------------15------|
D|------------------------------------------------------------------------------------|
A|------------------------------------------------------------------------------------|
E|------------------------------------------------------------------------------------|

e|------------------------------------------------------------13-13-12-13-x-16-15-13--|
B|-13h15p13-11h13p11-10h11p10-8h10p8--------------10h11-12h13-13-13-11-13-x-16-15-13--|
G|-----------------------------------8-9-10-11-12-------------------------------------|
D|------------------------------------------------------------------------------------|
A|------------------------------------------------------------------------------------|
E|------------------------------------------------------------------------------------|

e|-15-13----13-13-x-/16-15-13---16-15-13-15-13----13-13-x-/16-13--------13-13-------13|
B|-15-13----13-13-x-/16-15-13---16-15-13-15-13----13-13-x-/16-13--14h15-------14h15---|
G|------------------------------------------------------------------------------------|
D|-------15------------------------------------15-------------------------------------|
A|------------------------------------------------------------------------------------|
E|------------------------------------------------------------------------------------|

e|-13-13-13-13-12-10--8---------------------------------------------------------------|
B|----------15-13-11-10-10------------------------------------------------------------|
G|----------------------10------------------------------------------------------------|
D|------------------------------------------------------------------------------------|
A|------------------------------------------------------------------------------------|
E|------------------------------------------------------------------------------------|

e|-5-5-x-x-5-5-x-x-5-5-x-x-5-5-x-x--5-5-x-x-5-5-x-x-5-5-x-x-5-5-x-x--3-3-x-x-3-3-x-x--|
B|-6-6-x-x-6-6-x-x-6-6-x-x-6-6-x-x--6-6-x-x-6-6-x-x-6-6-x-x-6-6-x-x--3-3-x-x-3-3-x-x--|
G|-5-5-x-x-5-5-x-x-5-5-x-x-5-5-x-x--7-7-x-x-7-7-x-x-7-7-x-x-7-7-x-x--3-3-x-x-3-3-x-x--|
D|-7-7-x-x-7-7-x-x-7-7-x-x-7-7-x-x--7-7-x-x-7-7-x-x-7-7-x-x-7-7-x-x--5-5-x-x-5-5-x-x--|
A|-8-8-x-x-8-8-x-x-8-8-x-x-8-8-x-x--5-5-x-x-5-5-x-x-5-5-x-x-5-5-x-x--x-x-x-x-x-x-x-x--|
E|-------------------------------------------------------------------3-3-x-x-3-3-x-x--|

e|-3-3-x-x-3-3-x-x---8--8-x-x--8--8-x-x--8--8-x-x--8--8-x--5-5-x-x-5-5-x-x-5-5-x-x-5-5-x-x-|
B|-3-3-x-x-3-3-x-x---8--8-x-x--8--8-x-x--8--8-x-x--8--8-x--5-5-x-x-5-5-x-x-5-5-x-x-5-5-x-x-|
G|-3-3-x-x-3-3-x-x---8--8-x-x--8--8-x-x--8--8-x-x--8--8-x--5-5-x-x-5-5-x-x-5-5-x-x-5-5-x-x-|
D|-5-5-x-x-5-5-x-x---9--9-x-x--9--9-x-x--9--9-x-x--9--9-x--7-7-x-x-7-7-x-x-7-7-x-x-7-7-x-x-|
A|-x-x-x-x-x-x-x-x--10-10-x-x-10-10-x-x-10-10-x-x-10-10-x--x-x-x-x-x-x-x-x-x-x-x-x-x-x-x-x-|
E|-3-3-x-x-3-3-x-x---8--8-x-x--8--8-x-x--8--8-x-x--8--8-x--5-5-x-x-5-5-x-x-5-5-x-x-5-5-x-x-|

e|-5-5-x-x-5-5-x-x-5-5-x-x-5-5-x-x--3-3-x-x-3-3-x-x-3-3-x-x-3-3-x-x-------------------|
B|-6-6-x-x-6-6-x-x-6-6-x-x-6-6-x-x--3-3-x-x-3-3-x-x-3-3-x-x-3-3-x-x--8-8-x-x-8-8-x-x--|
G|-7-7-x-x-7-7-x-x-7-7-x-x-7-7-x-x--3-3-x-x-3-3-x-x-3-3-x-x-3-3-x-x--7-7-x-x-7-7-x-x--|
D|-7-7-x-x-7-7-x-x-7-7-x-x-7-7-x-x--5-5-x-x-5-5-x-x-5-5-x-x-5-5-x-x--8-8-x-x-8-8-x-x--|
A|-5-5-x-x-5-5-x-x-5-5-x-x-5-5-x-x--x-x-x-x-x-x-x-x-x-x-x-x-x-x-x-x--7-7-x-x-7-7-x-x--|
E|----------------------------------3-3-x-x-3-3-x-x-3-3-x-x-3-3-x-x-------------------|

e|----------------------5-5-x-x-5-5-x-x-5-5-x-x-5-x--6-6-x-x-6-6-x-x-6-6-x-x-6-x------|
B|-10-10-x-x-10-10-x-x--6-6-x-x-6-6-x-x-6-6-x-x-6-x--8-8-x-x-8-8-x-x-8-8-x-x-8-x------|
G|-12-12-x-x-12-12-x-x--7-7-x-x-7-7-x-x-7-7-x-x-7-x--8-8-x-x-8-8-x-x-8-8-x-x-8-x------|
D|-11-11-x-x-11-11-x-x--7-7-x-x-7-7-x-x-7-7-x-x-7-x--8-8-x-x-8-8-x-x-8-8-x-x-8-x------|
A|-12-12-x-x-12-12-x-x--5-5-x-x-5-5-x-x-5-5-x-x-5-x--6-6-x-x-6-6-x-x-6-6-x-x-6-x------|
E|------------------------------------------------------------------------------------|

e|-5-5-x-x-5-5-x-x-5-5-x-x-5-x--6-6-x-x-6-6-x-x-6-6-x-x-6-x-x-------------------------|
B|-6-6-x-x-6-6-x-x-6-6-x-x-6-x--8-8-x-x-8-8-x-x-8-8-x-x-8-x-x-------------------------|
G|-7-7-x-x-7-7-x-x-7-7-x-x-7-x--8-8-x-x-8-8-x-x-8-8-x-x-8-x-x-------------------------|
D|-7-7-x-x-7-7-x-x-7-7-x-x-7-x--8-8-x-x-8-8-x-x-8-8-x-x-8-x-x-------------------------|
A|-5-5-x-x-5-5-x-x-5-5-x-x-5-x--6-6-x-x-6-6-x-x-6-6-x-x-6-x-x-------------------------|
E|------------------------------------------------------------------------------------|

e|-13-13-x-x-13-13-x-x-13-13-x-x-13-13-x-x-13-13-x-x-13-13-x-x-13-13-x-x-13-13--------|
B|-13-13-x-x-13-13-x-x-13-13-x-x-13-13-x-x-13-13-x-x-13-13-x-x-13-13-x-x-13-13--------|
G|-14-14-x-x-14-14-x-x-14-14-x-x-14-14-x-x-14-14-x-x-14-14-x-x-14-14-x-x-14-14--------|
D|-15-15-x-x-15-15-x-x-15-15-x-x-15-15-x-x-15-15-x-x-15-15-x-x-15-15-x-x-15-15--------|
A|------------------------------------------------------------------------------------|
E|------------------------------------------------------------------------------------|

e|-10-10-x-x-10-10-x-x-10-10-x-x-10-10-x-x-10-10-x-x-10-10-x-x-10-10-x-x-10-10--------|
B|-11-11-x-x-11-11-x-x-11-11-x-x-11-11-x-x-11-11-x-x-11-11-x-x-11-11-x-x-11-11--------|
G|-10-10-x-x-10-10-x-x-10-10-x-x-10-10-x-x-10-10-x-x-10-10-x-x-10-10-x-x-10-10--------|
D|-12-12-x-x-12-12-x-x-12-12-x-x-12-12-x-x-12-12-x-x-12-12-x-x-12-12-x-x-12-12--------|
A|------------------------------------------------------------------------------------|
E|------------------------------------------------------------------------------------|

e|-3-3-x-x-3-3-x-x-3-3-x-x-3-3-x-x--x-3--x-5--x-6--x-7--8--8--8-----------------------|
B|-3-3-x-x-3-3-x-x-3-3-x-x-3-3-x-x--x-3--x-5--x-6--x-7--8--8--8-----------------------|
G|-3-3-x-x-3-3-x-x-3-3-x-x-3-3-x-x--x-3--x-5--x-7--x-7-10-10-10-----------------------|
D|-5-5-x-x-5-5-x-x-5-5-x-x-5-5-x-x--x-5--x-7--x-8--x-8--8--8--8-----------------------|
A|-----------------------------------------------------10-10-10-----------------------|
E|------------------------------------------------------8--8--8-----------------------|

e|------------------------------------------------------------------------------------|
B|-------10-9-8-7-----10-11--8-10-11-10--11--8--11-10--10-9-8-7-----10-11--8-10-11-10-|
G|----------------8-7-------------------------------------------8-7-------------------|
D|-7--7-------------------------------------------------------------------------------|
A|------------------------------------------------------------------------------------|
E|------------------------------------------------------------------------------------|

e|-13-13-x-x-13-x-x-x-13-x-x-13-x-12/13...|-------------------------------------------|
B|-13-13-x-x-13-x-x-x-13-x-x-13-x-12/13...|-------------------------------------------|
G|-14-14-x-x-14-x-x-x-14-x-x-14-x-13/14...|-------------------------------------------|
D|-15-15-x-x-15-x-x-x-15-x-x-15-x------...|-------------------------------------------|
A|----------------------------------------|-------------------------------------------|
E|----------------------------------------|-------------------------------------------|



************************************

| p  Pull-off
| x  Dead note
| h  Hammer-on
| /  Slide up
| \  Slide down
| ~  Vibrato
| b  Bend

************************************

            
            
Suggest correction
Creating personal tab
Creating personal tab
You can edit any tab online and save it as your Personal.

You can edit, replace or remove any tab part or add personal notes – all changes will be seen only by you.

Personal tabs can be accessed anytime from any device, even offline.
Learn more »
Give kudos to tab author, rate the tab!
1 2 3 4 5
comments
print report bad tab
guest
You may want to rate the tab now too:
select rating
Wanna post a correction for this tab? Suggest correction