Oops, an error
Loading. Please wait.

Corrine bass

49 views 1 this week
no commentswrite comment
1 2 3 4 5
3 more votes to show rating
add to favorites
×
Save as Personal and add changes to this tab that will be seen only by you. Learn more ›
×
You can save this tab as Personal to edit and correct it or add notes. All changes will be seen only by you. Learn more »
launch autoscroll
font size
0
reset
guitar tuner
edit
Autoscroll
slow
fast
+/-
esc
set tempo
stop
Author
Difficulty
Tabbed by: 6METAL6BASSIST6
E-mail: petergriffinav@gmail.com

Tuning: 1/4 step up.

G|16------------------------------17------------------------------|
D|----------------------------------------------------------------|
A|----------------------------------------------------------------|
E|----------------------------------------------------------------|

G|14------------------------------16------------------------------|
D|----------------------------------------------------------------|
A|----------------------------------------------------------------|
E|----------------------------------------------------------------|

G|----------------------------------------------------------------|
D|----------------------------------------------------------------|
A|----------------------------------------------------------------|
E|----------------------------------------------------------------|

G|----------------------------------------------------------------|
D|----------------------------------------------------------------|
A|----------------------------------------------------------------|
E|----------------------------------------------------------------|

G|----------------------------------------------------------------|
D|----------------------------------------------------------------|
A|--------------------------------7-------------------------------|
E|----------------------------7-------------------------------7---|

G|--------------------------------|
D|------------9-------------------|
A|7-------------------------------|
E|----------------------------7---|

0:25

G|----------------------------------------------------------------|
D|--------------------------------9---11--12--11------9-----------|
A|7---------------------------------------------------------------|
E|----------------------------------------------------------------|

G|----------------------------------------------------------------|
D|7---------------6-----------------------------------------------|
A|--------------------------------9-------------------------------|
E|------------------------------------------------7---------------|

G|----------------------------------------------------------------|
D|------------9---------------------------------------------------|
A|7---------------------------7---5-----------9-------------------|
E|------------------------7---------------------------------------|

G|----------------------------------------------------------------|
D|7---------------6-----------------------------------------------|
A|--------------------------------9-------------------------------|
E|------------------------------------------------7---------------|

G|----------------------------------------------------------------|
D|------------9-------------------------------9-------------------|
A|7-------------------------------7-------------------------------|
E|----------------------------7-------------------------------7---|

0:47

G|----------------------------------------------------------------|
D|------------9---------------------------------------------------|
A|7---------------------------7---5-----------9-------------------|
E|------------------------7---------------------------------------|

G|----------------------------------------------------------------|
D|7---------------6-----------------------------------------------|
A|--------------------------------9-------------------------------|
E|------------------------------------------------7---------------|

G|----------------------------------------------------------------|
D|------------9---------------------------------------------------|
A|7-------------------------------5-----------9-------------------|
E|------------------------7---------------------------------------|

G|----------------------------------------------------------------|
D|7---------------6-----------------------------------------------|
A|--------------------------------9-------------------------------|
E|------------------------------------------------7---------------|

G|----------------------------------------------------------------|
D|------------9-------------------------------9-------------------|
A|7-------------------------------7-------------------------------|
E|----------------------------7-------------------------------7---|

1:07

G|----------------------------------------------------------------|
D|--------------------------------9---11--12--11------9-----------|
A|7-----------7---------------------------------------------------|
E|----------------------------------------------------------------|

G|----------------------------------------------------------------|
D|7---------------6-----------------------------------------------|
A|--------------------------------9-------------------------------|
E|------------------------------------------------7---------------|

G|----------------------------------------------------------------|
D|------------9---9-----------------------------------------------|
A|7---------------------------7---5-----------9-------------------|
E|------------------------7---------------------------------------|

G|----------------------------------------------------------------|
D|7---------------6-----------------------------------------------|
A|--------------------------------9-------------------------------|
E|------------------------------------------------7---------------|

G|----------------------------------------------------------------|
D|------------9-------------------------------9-------------------|
A|7-------------------------------7-------------------------------|
E|----------------------------7-------------------------------7---|

1:28

G|----------------------------------------------------------------|
D|------------9---------------------------------------------------|.
A|7---------------------------7---5-----------9-------------------|.
E|------------------------7---------------------------------------|.
                                                                   . x2
G|----------------------------------------------------------------|.
D|7---------------6-----------------------------------------------|.
A|--------------------------------9-------------------------------|.
E|------------------------------------------------7---------------|.

G|----------------------------------------------------------------|
D|------------9-------------------------------9-------------------|
A|7-------------------------------7-------------------------------|
E|----------------------------7-------------------------------7---|

1:49

G|----------------------------------------------------------------|
D|--------------------------------9---11--12--11------9-----------|
A|7-----------7---------------------------------------------------|
E|----------------------------------------------------------------|

G|----------------------------------------------------------------|
D|7---------------6-----------------------------------------------|
A|--------------------------------9-------------------------------|
E|------------------------------------------------7---------------|

G|----------------------------------------------------------------|
D|----------------9-----------------------------------------------|
A|7-------------------------------5-----------9-------------------|
E|----------------------------------------------------------------|

G|----------------------------------------------------------------|
D|----------------6-----------------------------------------------|
A|--------------------------------9-------------------------------|
E|5-----------------------------------------------7---------------|

G|----------------------------------------------------------------|
D|------------9-------------------------------9-------------------|
A|7-------------------------------7-------------------------------|
E|----------------------------7-------------------------------7---|

2:09

G|----------------------------------------------------------------|.
D|------------9---------------------------------------------------|.
A|7---------------------------7---5-----------9-------------------|.
E|------------------------7---------------------------------------|.
                                                                   . x2
G|----------------------------------------------------------------|.
D|7---------------6-----------------------------------------------|.
A|--------------------------------9-------------------------------|.
E|------------------------------------------------7---------------|.

G|----------------------------------------------------------------|
D|------------9---------------9---------------9-------------------|
A|7-------------------------------7-------------------------------|
E|--------------------------------------------------------7-------|

G|----------------------------------------------------------------|
D|------------9-------------------------------7-------------------|
A|7-------------------------------5-------------------------------|
E|------------------------7---------------------------------------|

G|----------------------------------------------------------------|
D|----------------9-----------------------------------------------|
A|7-------------------------------7-------------------------------|
E|----------------------------------------------------------------|

            
            
Suggest correction
Creating personal tab
Creating personal tab
You can edit any tab online and save it as your Personal.

You can edit, replace or remove any tab part or add personal notes – all changes will be seen only by you.

Personal tabs can be accessed anytime from any device, even offline.
Learn more »
Give kudos to tab author, rate the tab!
1 2 3 4 5
comments
print report bad tab
guest
You may want to rate the tab now too:
select rating
Wanna post a correction for this tab? Suggest correction