Oops, an error
Loading. Please wait.

Laughing On The Inside chords

154 views 9 this week
no commentswrite comment
1 2 3 4 5
3 more votes to show rating
add to favorites
×
Save as Personal and add changes to this tab that will be seen only by you. Learn more ›
×
You can save this tab as Personal to edit and correct it or add notes. All changes will be seen only by you. Learn more »
launch autoscroll
font size
0
reset
transpose
0
reset
display chords
guitar tuner
edit
Autoscroll
slow
fast
+/-
esc
set tempo
stop
Author
Strumming
There is no strumming pattern for this song yet. and get +5 IQ
Laughing on the inside (Chuck Prophet)

Intro x2
   A                                    D                               A
e|-9-9-9-10-9-----------7-------------------10-10-10-9----10-10-10-9----------|
B|-------------10-10-10--10---------7---7-------------10------------10--7-----|
G|----------------------------9-9-9---9-----------------------------------9-9-|
D|----------------------------------------------------------------------------|
A|----------------------------------------------------------------------------|
E|----------------------------------------------------------------------------|

A
The head of a horse the heart of a dog
                            D
What kind of a creature is that?
                                        A
The river of life changes course every morning
A
Well we stood on the banks we stared at the sun
                            D
I felt you take hold of my hand 
                                                     A
When you took off your dress I couldn’t believe my good fortune
Bm     D                     A
Yeah! I’m laughing on the inside
Bm           D               A
Yeah, yeah! I’m crying out loud


A
We planted our flag at the top of the hill
                        D
Now it’s a hole in the ground
                                                         A
When they turned on the hose it felt like a drop in the ocean
A
I robbed myself blind to pay myself back
                         D
Thought I could make it alone
                                                 A
Til you said goodbye to the sound of the sirens approaching
Bm   D                     A
Oh! I’m laughing on the inside
Bm    D                  A
Ye-e-ah, I’m crying out loud

C#m  Bm   C#m  Bm   D    

   A                                    D                               A
e|-9-9-9-10-9-----------7-------------------10-10-10-9----10-10-10-9----------|
B|-------------10-10-10--10---------7---7-------------10------------10--7-----|
G|----------------------------9-9-9---9-----------------------------------9-9-|
D|----------------------------------------------------------------------------|
A|----------------------------------------------------------------------------|
E|----------------------------------------------------------------------------|

Bm    D                        A
Oh oh oh! I’m laughing on the inside
Bm    D                  A
Ye-e-ah, I’m crying out loud
Bm    D                        A
Oh oh oh! I’m laughing on the inside
Bm    D                  A
Ye-e-ah, I’m crying out loud

            
            
Suggest correction
Creating personal tab
Creating personal tab
You can edit any tab online and save it as your Personal.

You can edit, replace or remove any tab part or add personal notes – all changes will be seen only by you.

Personal tabs can be accessed anytime from any device, even offline.
Learn more »
Give kudos to tab author, rate the tab!
1 2 3 4 5
comments
print report bad tab
guest
You may want to rate the tab now too:
select rating
Wanna post a correction for this tab? Suggest correction