Oops, an error
Loading. Please wait.

Tubthumping tab

version 3
version 3

Whole song

Interactive

7,784 views 12 this week
no commentswrite comment
1 2 3 4 5
2 more votes to show rating
add to favorites
×
Save as Personal and add changes to this tab that will be seen only by you. Learn more ›
×
You can save this tab as Personal to edit and correct it or add notes. All changes will be seen only by you. Learn more »
launch autoscroll
font size
0
reset
how to read this tab
guitar tuner
backing track
0:00
0:00
edit
Autoscroll
slow
fast
+/-
esc
set tempo
stop
Author
Tubthumping - Chumbawamba
----------------------------------------------------------------------------
Tabbed by: Chrismach152

Tuning: Standard (E,A,D,G,B,e)

Intro
(0:01 – 0:08) clean
We’ll be singing...    when were winning...    we’ll be singing
e|-----------------------------------------------------------------|
B|-----------------------------------------------------------------|
G|-----------------------------------------------------------------|
D|-7-----------------7------------------7--------------------------|
A|-5--------------5--5---------------5--5-------------5--7-7-7-7-7-|
E|----------------3------------------3----------------3--5-5-5-5-5-|

Riff
(0:09)
I get knocked down, but I get up again you‘re never going to keep me down
(0:10 – 0:28) Guitar starts with distortion
e|---------------------------------------------|
B|---------------------------------------------|
G|---------------------------------------------|
D|-------7-----------7-----------7-------------|
A|-------5-----5-----5-----5-----5-----5-----7-|
E|-------------3-----------3-----------3-----5-|

e|-----------------------------------------------------|
B|-----------------------------------------------------|
G|-----------------------------------------------------|
D|-------7-----------7-----------7---------------------|
A|-------5-----5-----5-----5-----5-----5-----7-7-7-7-7-|
E|-------------3-----------3-----------3-----5-5-5-5-5-|

e|---------------------------------------------|
B|---------------------------------------------|
G|---------------------------------------------|
D|-------7-----------7-----------7-------------|
A|-------5-----5-----5-----5-----5-----5-----7-|
E|-------------3-----------3-----------3-----5-|

e|-----------------------------------------------------|
B|-----------------------------------------------------|
G|-----------------------------------------------------|
D|-------7-----------7-----------7---------------------|
A|-------5-----5-----5-----5-----5-----5-----7-7-7-7-7-|
E|-------------3-----------3-----------3-----5-5-5-5-5-|

Chorus 1
(0:29 – 0:37)
Pissing the night away, pissing the night away
e|---------------------------------------|
B|---------------------------------------|
G|---------------------------------------|
D|--7---------7---------7---------7------|
A|--5----5----5----7----5----5----5----7-|
E|-------3---------5—--------3---------5-|
Verse
(0:38 – 0:46) clean
He drinks a whisky drink, he drinks a vodka drink, he drinks a cider drink, he drinks a 
drink,
he sings a song that reminds him of the good times, he sings a song that reminds him of 
better times
e|--------------------------------------------------------------------|
B|--------------------------------------------------------------------|
G|--------------------------------------------------------------------|
D|-7---------------------7--------------------7-----------------------|
A|-5----------5----------5----------5---------5----------5----------7-|
E|------------3---------------------3--------------------3----------5-|


Chorus 2
(0:47 – 0:56) clean
Oh Danny boy,                Danny boy,                Danny boy...
e|---------------------------------------------------------|
B|---------------------------------------------------------|
G|---------------------------------------------------------|
D|-7---------------------7--------------------7------------|
A|-5----------5----------5----------5---------5----------5-|
E|------------3---------------------3--------------------3-|


Riff
I get knocked down, but I get up again you‘re never going to keep me down
(0:57 – 1:13) distorted
e|---------------------------------------------|
B|---------------------------------------------|
G|---------------------------------------------|
D|-------7-----------7-----------7-------------|
A|-------5-----5-----5-----5-----5-----5-----7-|
E|-------------3-----------3-----------3-----5-|

e|-----------------------------------------------------|
B|-----------------------------------------------------|
G|-----------------------------------------------------|
D|-------7-----------7-----------7---------------------|
A|-------5-----5-----5-----5-----5-----5-----7-7-7-7-7-|
E|-------------3-----------3-----------3-----5-5-5-5-5-|

e|---------------------------------------------|
B|---------------------------------------------|
G|---------------------------------------------|
D|-------7-----------7-----------7-------------|
A|-------5-----5-----5-----5-----5-----5-----7-|
E|-------------3-----------3-----------3-----5-|

e|-----------------------------------------------------|
B|-----------------------------------------------------|
G|-----------------------------------------------------|
D|-------7-----------7-----------7---------------------|
A|-------5-----5-----5-----5-----5-----5-----7-7-7-7-7-|
E|-------------3-----------3-----------3-----5-5-5-5-5-|

Chorus 1
(1:15 – 1:23)
Pissing the night away, pissing the night away
e|---------------------------------------|
B|---------------------------------------|
G|---------------------------------------|
D|--7---------7---------7---------7------|
A|--5----5----5----7----5----5----5----7-|
E|-------3---------5—--------3---------5-|

Verse
(1:24 – 1:32) clean
He drinks a whisky drink, he drinks a vodka drink, he drinks a cider drink, he drinks a 
drink,
he sings a song that reminds him of the good times, he sings a song that reminds him of 
better times
e|--------------------------------------------------------------------|
B|--------------------------------------------------------------------|
G|--------------------------------------------------------------------|
D|-7---------------------7--------------------7-----------------------|
A|-5----------5----------5----------5---------5----------5----------7-|
E|------------3---------------------3--------------------3----------5-|

Chorus 3
(1:33 – 1:41) clean
Don’t cry for me, next door neighbor
e|---------------------------------------------------------|
B|---------------------------------------------------------|
G|---------------------------------------------------------|
D|-7---------------------7--------------------7------------|
A|-5----------5----------5----------5---------5----------5-|
E|------------3---------------------3--------------------3-|

Riff
I get knocked down, but I get up again you‘re never going to keep me down
(1:52 – 2:01) distorted
e|---------------------------------------------|
B|---------------------------------------------|
G|---------------------------------------------|
D|-------7-----------7-----------7-------------|
A|-------5-----5-----5-----5-----5-----5-----7-|
E|-------------3-----------3-----------3-----5-|

e|-----------------------------------------------------|
B|-----------------------------------------------------|
G|-----------------------------------------------------|
D|-------7-----------7-----------7---------------------|
A|-------5-----5-----5-----5-----5-----5-----7-7-7-7-7-|
E|-------------3-----------3-----------3-----5-5-5-5-5-|

e|---------------------------------------------|
B|---------------------------------------------|
G|---------------------------------------------|
D|-------7-----------7-----------7-------------|
A|-------5-----5-----5-----5-----5-----5-----7-|
E|-------------3-----------3-----------3-----5-|

e|-----------------------------------------------------|
B|-----------------------------------------------------|
G|-----------------------------------------------------|
D|-------7-----------7-----------7---------------------|
A|-------5-----5-----5-----5-----5-----5-----7-7-7-7-7-|
E|-------------3-----------3-----------3-----5-5-5-5-5-|

Solo
(2:02 – 2:18)clean
                          /\
e|--------------------------17-|
B|-15-14---------15-14---------|
G|--------14-11.---------11----|
D|-----------------------------|
A|-----------------------------|
E|-----------------------------|
                                                             /\
e|--------------------------------------------------------------17.-|
B|15-15---------15-15--15-15---------15-15--15-15--------15-15------|
G|-------14-14----------------14-14----------------14-14------------|
D|------------------------------------------------------------------|
A|------------------------------------------------------------------|
E|------------------------------------------------------------------|

Riff
I get knocked down, but I get up again you‘re never going to keep me down
(2:19 – 3:20) distorted
e|---------------------------------------------|
B|---------------------------------------------|
G|---------------------------------------------|
D|-------7-----------7-----------7-------------|
A|-------5-----5-----5-----5-----5-----5-----7-|
E|-------------3-----------3-----------3-----5-|

e|-----------------------------------------------------|
B|-----------------------------------------------------|
G|-----------------------------------------------------|
D|-------7-----------7-----------7---------------------|
A|-------5-----5-----5-----5-----5-----5-----7-7-7-7-7-|
E|-------------3-----------3-----------3-----5-5-5-5-5-|

e|---------------------------------------------|
B|---------------------------------------------|
G|---------------------------------------------|
D|-------7-----------7-----------7-------------|
A|-------5-----5-----5-----5-----5-----5-----7-|
E|-------------3-----------3-----------3-----5-|

e|-----------------------------------------------------|
B|-----------------------------------------------------|
G|-----------------------------------------------------|
D|-------7-----------7-----------7---------------------|
A|-------5-----5-----5-----5-----5-----5-----7-7-7-7-7-|
E|-------------3-----------3-----------3-----5-5-5-5-5-| x4


Intro
Riff
Chorus 1
Verse
Chorus 2
Riff
Verse
Riff
Chorus 1
Verse
Chorus 3
Riff
Solo
Riff x4

            
            
Suggest correction
Creating personal tab
Creating personal tab
You can edit any tab online and save it as your Personal.

You can edit, replace or remove any tab part or add personal notes – all changes will be seen only by you.

Personal tabs can be accessed anytime from any device, even offline.
Learn more »
Give kudos to tab author, rate the tab!
1 2 3 4 5
comments
print report bad tab
guest
You may want to rate the tab now too:
select rating
Wanna post a correction for this tab? Suggest correction