Oops, an error
Loading. Please wait.

Desobediencia tab

69 views 3 this week
no commentswrite comment
1 2 3 4 5
3 more votes to show rating
add to favorites
×
Save as Personal and add changes to this tab that will be seen only by you. Learn more ›
×
You can save this tab as Personal to edit and correct it or add notes. All changes will be seen only by you. Learn more »
launch autoscroll
font size
0
reset
how to read this tab
guitar tuner
edit
Autoscroll
slow
fast
+/-
esc
set tempo
stop
Aqui va un tema de los cicatriz, el solo no lo pongo,
jugando con la guitarra se saca, eso va a gustos de cada uno!!!
el intro:

e|---------------------------------------------------------
B|---------------------------------------------------------
G|--------------------------2----2-------------------------
D|----7----9----12----12----2----2----7----5----7---7---9--
A|----5----7----10----10----0----0----5----3----5---5---7--
E|---------------------------------------------------------


e|-------------------
B|-------------------
G|------------2--2---
D|---12--12---2--2---
A|---10--10---0--0---
E|-------------------


e|-------------------------------------    al principio es con palm muted,
B|-------------------------------------
G|------------------------------------
D|---7-7-7-7-7-7-7-7------------------
A|---5-5-5-5-5-5-5-5--7-7-7-7-7-7-7-----------
E|--------------------5-5-5-5-5-5-5-----------


e|-----------------------------------------------------------
B|------------------7-7-7-6-7-7-7----------------------------   Estrofas.
D|---7-7-7/6-7-7-7--5-5-5/4-5-5-5--7-7-7-7-7-7-7--7-7--------
A|---5-5-5/4-5-5-5-----------------7-7-7-7-7-7-7--5-5-4-3-4--
E|---------------------------------5-5-5-5-5-5-5-------------


El estribillo:


e|-----------------------------------------------------------------------------
B|-----------------------------------------------------------------------------
G|-----------------------------------------------------------------------------
D|-7-7-7/6-7-7-7/6-7-7-7-7------------7-7-7-7/6-7-7-7-2-2-2-2-2-3-3-3-3--5---3-
A|-5-5-5/4-5-5 5/4-5-5-5-5--5-5-5-5-5-5-5-5-5/4-5-5-5-2-2-2-2-2-3-3-3-3--3---1-
E|--------------------------3-3-3-3-3-----------------0-0-0-0-0-1-1-1-1--------

Ahi esta el estribillo , a veces solo se hace la parte desde Mi.
con estas partes ya la sabeis entera, en el solo se lleva
las mismas notas que en las estrofas

Despues del solo hace esto:

e|-------------------------------------
B|-------------------------------------   Cada pasada
G|-------------------------------------   con un ritmo diferente
D|----7---7-----------------------7--7--- es ritmo tipo ska.
A|----5---5----5----5----7----7---5--5---
E|-------------3----3----5----5----------


El final es algo asi.

e|-------------------------------------
B|-------------------------------------
G|------------------------------------
D|--2-2---2---2-2--3-3-3-5---3---------
A|--2-2---2---2-2--3-3-3-3---1---------
E|--0-0-3-0-3-0-0--1-1-1---------------

Vuelvo a repetir que los golpes en cada nota
no son los exactos, es para hacerse una idea.

Ahi la teneis, bastante facil y muy guapa. suerte!!!

            
            
Suggest correction
Creating personal tab
Creating personal tab
You can edit any tab online and save it as your Personal.

You can edit, replace or remove any tab part or add personal notes – all changes will be seen only by you.

Personal tabs can be accessed anytime from any device, even offline.
Learn more »
Give kudos to tab author, rate the tab!
1 2 3 4 5
comments
print report bad tab
guest
Wanna post a correction for this tab? Suggest correction