Oops, an error
Loading. Please wait.

Algen chords

version 3
version 3

Whole song

56 views 1 this week
no commentswrite comment
1 2 3 4 5
3 more votes to show rating
add to favorites
×
Save as Personal and add changes to this tab that will be seen only by you. Learn more ›
×
You can save this tab as Personal to edit and correct it or add notes. All changes will be seen only by you. Learn more »
launch autoscroll
font size
0
reset
transpose
0
reset
simplify chords
display chords
guitar tuner
edit
Autoscroll
slow
fast
+/-
esc
set tempo
stop
Strumming
There is no strumming pattern for this song yet. and get +5 IQ
Mi vercion de ALGEN. espero que les sirva, hace muuuuucho que
la tengo pero tube ahora ganas de ponerla.

         INTRO :

  Eb5  Eb MIbmaj7 Bbsus4
1--x-----x-----x-----6-----
2--x-----8-----8-----6-----
3--8-----8-----7-----8-----
4--8-----8-----8-----8-----
5--6-----6-----6-----8-----
6--x-----x-----x-----6-----

 Bb
Puedo perder la causa en un minuto,
 Ebmaj7
y suelo sentir bondad frente a tu mundo.
 Eb5
Debo creer que aún nos queda resto,
 Bb
y remediar todo lo que hemos hecho.

Voy a entregarme en la tarde que prefieras,
reza la calle odios que condenan.
Date volumen y algo de silencio,
solo una vida hay bajo este cielo.

 Ebmaj7                         Bb5
Que los días tibios no se causen,
 Ebmaj7                         Bb5
Lejos de la furia y el desastre.

 REb9maj7
Vamos a la profundidad.
 Eb5                     Db5      Bb
Pude entender que ahi tu magia es sólida.

 D9maj7        Eb
De vez en cuando   veo tu realidad
 D9maj7        Eb
De vez en cuando   veo tu realidad
 D9maj7  Eb     D9maj7
      Veo tu realidad...

 INTER : Bb5  Bb  SIbsus4

Quiero frenar lo mas irremediable
somos espejos hartos del reflejo.
Ya se que el miedo acecha en los rincones
y en esa cruz pedís que te los borren

Que seas mejor de lo que intento,
que Dios quiera siempre este regreso.

Vamos a la profundidad.
Pude entender que ahi tu magia es solida.

De vez en cuando veo tu realidad
De vez en cuando veo tu realidad
Veo tu realidad...

 INTER :

  REb5 (arm.)
1-----------------------------------------------------------------
2--------------------------------13-13-13-13--13-13-13--13-13-...-
3--(6)-x-x-x-x--x-x-x--x-x-x-x------------------------------------
4--(6)-x-x-x-x--x-x-x--x-x-x-x------------------------------------
5--(4)-x-x-x-x--x-x-x--x-x-x-x------------------------------------
6-----------------------------------------------------------------

                                       Bb5
1-----------------------------------------------------------------
2--13-13-13-13--13-13-13--13-13-13-13-----------------------------
3--------------------------------------8-8-8-8--8-8-8--8-8-8-8----
4--------------------------------------8-8-8-8--8-8-8--8-8-8-8----
5--------------------------------------6-6-6-6--6-6-6--6-6-6-6----
6-----------------------------------------------------------------


 Db9maj7                Db9 REb
Vamos a la profundidad...

SOLO DE PIANO : REb9maj7 MIb x2


De vez en cuando veo tu realidad
De vez en cuando veo tu realidad
Veo tu realidad...

 FINAL : Bb A Ab G Gb

 NOTAS:
            6 5 4 3 2 1

 REb9maj7   x 4 6 5 4 4

 REb9       x 4 6 6 4 4

            
            
Suggest correction
Creating personal tab
Creating personal tab
You can edit any tab online and save it as your Personal.

You can edit, replace or remove any tab part or add personal notes – all changes will be seen only by you.

Personal tabs can be accessed anytime from any device, even offline.
Learn more »
Give kudos to tab author, rate the tab!
1 2 3 4 5
comments
print report bad tab
guest
Wanna post a correction for this tab? Suggest correction