Oops, an error
Loading. Please wait.

Arde tab

version 2
version 2

Whole song

37 views 1 this week
no commentswrite comment
1 2 3 4 5
3 more votes to show rating
add to favorites
×
Save as Personal and add changes to this tab that will be seen only by you. Learn more ›
×
You can save this tab as Personal to edit and correct it or add notes. All changes will be seen only by you. Learn more »
launch autoscroll
font size
0
reset
how to read this tab
guitar tuner
edit
Autoscroll
slow
fast
+/-
esc
set tempo
stop
Les dejo mi versión de este tema

  C/F
e|-0-|
B|-1-|
G|-0-|
D|-3-|
A|-3-|
E|-0-|

Bbsus2
e|-1-|
B|-1-|
G|-3-|
D|-3-|
A|-1-|
E|---|

[INTRO]

e|-------------------|----------------0--|
B|---------------1---|---------------1-1-|
G|----0-------0---0--|----0-------0------|
D|--2---2-2h3--3---3-|--2---2-2h3--3-----|
A|-3-3---------------|-3-3---------------|
E|-------------------|-------------------|

e|-------------------|----------------0~-|
B|----1----------1---|---------------1---|
G|---0--------0---0--|----0-------0------|
D|--2---2-2h3--3---3-|--2---2-2h3--3-----|
A|-3-----------------|-3-3---------------|
E|-------------------|-------------------|


C        C/F         C          C/F
Me dejé matar, me dejé robar el alma
C         C/F          C            C/F
pagué sin querer, sin querer te lastimé

Bbsus2                         C  C/F   C  C/F
Que daría en esta vida por volver,      amor mio
Bbsus2                         F
Que daría en esta vida por volver...


   C      C/F          C      C/F
e|-------------------|----------------0--
B|---------------1---|---------------1-1-
G|----0-------0---0--|----0-------0------
D|--2---2-2h3--3---3-|--2---2-2h3--3-----
A|-3-3---------------|-3-3---------------
E|-------------------|-------------------

   C      C/F          C      C/F         Bbsus2
e|-------------------|----------------------
B|----1----------1---|----------------------
G|---0--------0---0--|----0-----------------
D|--2---2-2h3--3---3-|--2---2--2h3-2-0------
A|-3-----------------|-3-3------------3-0-1-
E|-------------------|----------------------

  Bbsus2                         C      C/F
e|----------1--------------1---|----------------0--
B|------1----1---------1----1--|---------------1-1-
G|----3---3---3-----3----3---3-|-----0------0------
D|---3-3---3-------3-3----3----|----2-2-2h3--3-----
A|-1-------------1-------------|-3~----------------
E|-----------------------------|-------------------

  C       C/F         Bbsus2
e|------------------|------------1--------------1---
B|---------------1--|--------1----1---------1----1--
G|-----0------0---0-|------3---3---3-----3----3---3-
D|----2-2-2h3--3----|-----3-3---3-------3-3----3----
A|-3~---------------|-0-1-------------1-------------
E|------------------|-------------------------------

  F
e|----------1-------------1---|
B|-----1-----1-------1-----1--|
G|---2---2----2----2---2----2-|
D|--3-3---3-------3-3---3-----|
A|----------------------------|
E|-1-------------1------------|

(aca ya pueden darle rasguidos)

Me deje atrapar por la selva de los ruidos
nunca imaginé que sería mi destino

Que daría en esta vida por arder, amor mio
que daría en esta vida por arder...

G#                          Gm
El bar de la esquina, rutas de melancolias
F#                            F
y una guitarra loca, en el anden de las heridas
G#                             Gm
remendando infiernos tras las ruinas de tu olvido
F#                            F
y una guitarra loca que me arranca los sentidos

   G#   Gm   F#   F
e|---8~---6~---6~---5~-|
B|--9----8----7----6---|
G|-8----7----6----5----|
D|---------------------|X2
A|---------------------|
E|---------------------|

[SOLO 1] (C-D#-D)

   C
e|---------------------------------
B|---------------------3-5-6-5-3-1-
G|-/5~-55-3--3--3-3h5~-------------
D|----------5-5--------------------
A|---------------------------------
E|---------------------------------

        D#                    D                      C
e|-------------------------------------------------------|
B|-8-10-10/11/10-8-10b---8-10-10/11/10-8-10b---10b-8-5b~-|
G|--------------------8~--------------------7~-----------|
D|-------------------------------------------------------|
A|-------------------------------------------------------|
E|-------------------------------------------------------|


Me dejé arropar, y quedarme al fin dormido
desperté sin vos, pero me guardo este grito....
yeeeh!

Que daría en esta vida por arder, amor mio
Que daría en esta vida por arder...

El bar de la esquina, rutas de melancolias
y una guitarra loca, en el anden de las heridas
Remendando infiernos tras las ruinas del olvido
y una guitarra loca que me arranca los sentidos

   G#         Gm        F#         F
e|---8~--10-----6~--8-----6~~-8------5~~-6---|
B|--9---9--9---8---8-8---7-----7----6-----6--|
G|-8---8------7---7-----6-------6--5-------5-|
D|-------------------------------------------|
A|-------------------------------------------|
E|-------------------------------------------|

[SOLO 1] (C-D#-D)

   C
e|---------------------------------
B|---------------------3-5-6-5-3-1-
G|-/5~-55-3--3--3-3h5~-------------
D|----------5-5--------------------
A|---------------------------------
E|---------------------------------

        D#                    D                      C
e|-------------------------------------------------------|
B|-8-10-10/11/10-8-10b---8-10-10/11/10-8-10b---10b-8-5b~-|
G|--------------------8~--------------------7~-----------|
D|-------------------------------------------------------|
A|-------------------------------------------------------|
E|-------------------------------------------------------|


  C         C/F      C         C/F
  Me dejé matar,     me dejé matar
e|----15-----15--------15------------|
B|-/17---1717--(17)-----------17-----|
G|-/17---------------17---1717--(17)-|
D|-----------------------------------|
A|-----------------------------------|
E|-----------------------------------|

C         C/F  C
Me dejé matar, me dejé matar

Bbsus2                      F
Que daría en esta vida por volver!

El bar de la esquina, rutas de melancolias
y una guitarra loca, en el anden de las heridas
Remendando infiernos tras las ruinas del olvido
y una guitarra loca que me arranca los sentidos

   G#         Gm          F#         F
e|---8~-10-------6~-8-------6~~-8------5~~-5--6---|
B|--9-----9-----8----8-----7-----7----6-----6--6--|
G|-8---8---8---7---7--7---6----6--6--5-------5--5-|
D|------------------------------------------------|
A|------------------------------------------------|
E|------------------------------------------------|

El bar de la esquina, rutas de melancolias
y una guitarra loooooocaa!! (engancha con el Solo 2)

[SOLO 2] (C-D#-D x2)

   C
e|---------------------------------
B|---------------------3-5-6-5-3-1-
G|-/5~-55-3--3--3-3h5~-------------
D|----------5-5--------------------
A|---------------------------------
E|---------------------------------

        D#                  D                           C
e|---------------------------------------------------------
B|-8-10-10/11/10-8-10b------8-10-10/11/10-8-10b---10b-8-5b~
G|--------------------8~-(8)-------------------7~----------
D|---------------------------------------------------------
A|---------------------------------------------------------
E|---------------------------------------------------------

   C
e|-------------------------------------
B|-8br~~-(6)(6)8b~--5h6-5-3/1------5---
G|----------------------------0-3-5-5~-
D|-------------------------------------
A|-------------------------------------
E|-------------------------------------

        D#                       D                      C
e|---------------------------------------------------------/8~~-6~-|
B|-8-10-10/11/10-8-10b------8-10-10/11/10-8-10b---10b-8-5b~--------|
G|--------------------8~-(8)-------------------7~------------------|
D|-----------------------------------------------------------------|
A|-----------------------------------------------------------------|
E|-----------------------------------------------------------------|

C                           Bbsus2
Que daría en esta vida por volver
Bbus2                        C
que daría en esta vida por volver
C                           Bbsus2
que daría en esta vida por volver
Bbsus2                       C
que daría nena que daría nena!

       D#          D
Que daría...que daría
       C#         C
que daría...eeeehhh!


Esta es la versión completa del tema, las otras transcripciones
no lo estaban...prestenle mucha atención a los tiempos
de los solos y de la parte de "el bar de la esquina..."
escuchen mucho el tema como digo siempre
cualkier cosa me mandan mail a
lalos_boca20@
Aguante el Rock n' roll y nada mas,
es algo que los chetos no pueden entender!

            
            
Suggest correction
Creating personal tab
Creating personal tab
You can edit any tab online and save it as your Personal.

You can edit, replace or remove any tab part or add personal notes – all changes will be seen only by you.

Personal tabs can be accessed anytime from any device, even offline.
Learn more »
Give kudos to tab author, rate the tab!
1 2 3 4 5
comments
print report bad tab
guest
Wanna post a correction for this tab? Suggest correction