Oops, an error
Loading. Please wait.

Charlone bass

25 views 1 this week
no commentswrite comment
1 2 3 4 5
3 more votes to show rating
add to favorites
×
Save as Personal and add changes to this tab that will be seen only by you. Learn more ›
×
You can save this tab as Personal to edit and correct it or add notes. All changes will be seen only by you. Learn more »
launch autoscroll
font size
0
reset
guitar tuner
edit
Autoscroll
slow
fast
+/-
esc
set tempo
stop
G--------------------------------------------------
D--------------------------------------------------
A----------------------35--------------------35----   INTRO
E--5----3--3-3--3-3--35-------3--3-3--3-3--35------

G------------------------------------------------------
D------------------------------------------------------
A--7--7-7--7-6--6-6--6-5--5-5--5-4--4-4--------------     RIFF 1
E------------------------------------------------------

G------------------------------------------------------
D------------------------------------------------------
A------------------------------------------------------     RIFF 2
E--5555----5555-5-7-8--8-8--8--8-8--------------------

G-------------------------
D-------------------------       RIFF 3
A-----------------35------
E--3--3-3--3-3--35--------

G------------------------------------------------------
D------------------------------------------------------
A------------------------------------------------------     RIFF 4
E--5555----5555-5-7-8--8-8--8--8-8--12--12-12--12------

G------------------------------------------------
D------------------------------------------------
A--5----23----75----23----75----23----75----23---        RIFF 5
E------------------------------------------------

G--------------------------
D--------------------------
A---55555555-33333333------      RIFF 6
E--------------------------

G--------------------------
D--------------------------
A--7--76--65--54-4---------      RIFF 7
E--------------------------

Solo guitarra
Deslizando, deslizándome...
INTRO
Ya nunca jamás olvidaremos lo que fuimos.
RIFF 1
La risa, la bronca y la partida.
RIFF 2
Buscando, buscándolos...
RIFF 3
el cuero a rebentado y se han perdido sus pedazos,
RIFF 1
borracho ahora sobrio y sin espinas.
RIFF 4
Punteo 1
RIFF 5
Vos igual que ayer, igual siempre vos,
RIFF 3
la dulce espera de los perros que se quedan,
RIFF 1
esperan aullando es promesa.
RIFF 2
Te veo parir, siempre hermosa ahí,
RIFF 3
pintando las alas para el día en que se escapan...
RIFF 1
Si vuelven los que perdí me llamas...
RIFF 4
Punteo 1
RIFF 5
Brilla tan lejos, vuelan los cielos,
cruzando los llanos, ya no se si reís,
el calendari ha matado esos días,
y toda esa sangre no para de salir.
RIFF 6

Final
G-------------
D-------------
A------2------
E--5-------3--

Después se repite de nuevo todo hasta el siguiente punteo.

Va el RIFF 7 hasta el final de la canción...

Espero les sirva..le faltan algunos arreglos...bue es mi primer tab.

            
            
Suggest correction
Creating personal tab
Creating personal tab
You can edit any tab online and save it as your Personal.

You can edit, replace or remove any tab part or add personal notes – all changes will be seen only by you.

Personal tabs can be accessed anytime from any device, even offline.
Learn more »
Give kudos to tab author, rate the tab!
1 2 3 4 5
comments
print report bad tab
guest
Wanna post a correction for this tab? Suggest correction