Oops, an error
Loading. Please wait.

Desde La Puerta chords

23 views 1 this week
no commentswrite comment
1 2 3 4 5
3 more votes to show rating
add to favorites
×
Save as Personal and add changes to this tab that will be seen only by you. Learn more ›
×
You can save this tab as Personal to edit and correct it or add notes. All changes will be seen only by you. Learn more »
launch autoscroll
font size
0
reset
transpose
0
reset
simplify chords
display chords
guitar tuner
edit
Autoscroll
slow
fast
+/-
esc
set tempo
stop
Strumming
There is no strumming pattern for this song yet. and get +5 IQ
RIFF 1:
     Am     G    G/B
e|--------------------||
B|-------1----0-------||
G|----2-----0---------||
D|---2----------------||
A|--0------------2/7--||
E|----------3---------||


 Em     D          C                          (RIFF1)
Y algo tan sensible y cada tanto me pongo a pensar,
 Em    D         C                   C#*
ya sé    mi Dios  esta detrás de esa curva,
      D          Cadd9
pero busco siempre al llegar.

Em      D        Cmaj7/C#    Cadd9
  Lo mejor de tu vida esta presente,
Em      D        F
  ya llega la hora.

      Em    D           C
No hablemos hoy de nada
        C            (RIFF1)
sentémonos en la puerta a mirar
Em         D
  quien va,  quien fue
C                        C#*
   supongo que de nada importa
        D          Cadd9
pero un poco quiero mirar.

RIFF 2:
    C#*       D*          C#*       D*
e|---------------------|---------------------|
B|------7--------------|------7--------------|
G|------6----------0---|------6----------0---|  x2
D|----5---------4----4-|----5---------4----4-|
A|--4------4--5--------|--4------4--5--------|
E|---------------------|---------------------|

Em        D        C             A
  Vamos adentro apuremos, que ya sopla
      C            Cadd9*
y volvámonos a desvestir
Em      Bm        C                G-A
doy a tu suerte mi memoria, a tu suerte,
     C            D
y sigamos descubriéndonos.

(RIFF 2) x2

Se sienta en el banquito en la entrada
A A hora adecuada pasará                - (Riff2)
frente A A casa no espíes, pasara...   /

Interludio:

     C       Emadd9
e|--------------------|
B|--------------------|
G|-------0-------0----|
D|-----2---2---4---4--|  x4
A|---3-------2--------|
E|--------------------|

   1     2     3         4
e|-----------------------------------|
B|-----------------------------------|
G|-9--9--7/9--[11]-[11]-[12]/[11]----|
D|-----------------------------------|
A|-7--7--5/7---9----9---[10]/9-------|
E|-----------------------------------|

    1    2     3     4      1  2    1   2   3   4
e|------------------------|------|-------------------|
B|------------------------|------|----------3-3-3-3--|
G|-[11]--------4/2---2----|------|--0-0-0-0-0-0-0-0--|
D|------------------------|------|--2-2-2-2-0-0-0-0--|
A|--9----------2/0---0----|------|--3-3-3-3----------|
E|------------------------|------|-------------------|

   1     2     3         4
e|-----------------------------------|
B|-----------------------------------|
G|-9--9--7/9--[11]-[11]-[12]/[11]----|
D|-----------------------------------|
A|-7--7--5/7---9----9---[10]/9-------|
E|-----------------------------------|

    1     2    3     4      1  2    1   2   3   4
e|------------------------|------|-------------------|
B|------------------------|------|----------3-3-3-3--|
G|-[11]--------5/7---7----|------|--0-0-0-0-0-0-0-0--|
D|------------------------|------|--2-2-2-2-0-0-0-0--|
A|--9----------3/5---5----|------|--3-3-3-3----------|
E|------------------------|------|-------------------|

(efectos de sonido)
La guitarra hace este riff todo el tiempo:
RIFF 3:
e|---------[12]-------[12]---|
B|------[12]-------[12]------|
G|----9----------9-----------|
D|--9----------9-------------|
A|---------------------------|
E|---------------------------|
       D      C              A
Vamos adentro apuremos, que ya sopla
      C          Cadd9                     |
y volvámonos a desvestir                   |
Em         Bm        C             G-A     |
doy a tu suerte mi memoria, a tu suerte,   |
                                           | RIFF 3
     C             D                       |
y sigamos descubriéndonos.                 |
                                           |
Em      D      Cmaj7/C#    Cadd9           |
Lo mejor de tu vida esta presente.        /


Em       D       C             B5-A
Vamos adentro apuremos, que ya sopla
      C         Cadd9
y volvámonos a desvestir
Em        D           C           G-A
doy a tu suerte mi memoria, a tu suerte,
    C             D
y sigamos descubriéndonos.
Em        D       (RIFF2 hasta el final)
   Ya llega la hora


La otra viola hace esto en esa parte
(pueden hacerlo estirando cada cuerda también):

    1    2    3    4         1    2    3    4
e|-------5h7h5-----------|----------------------|
B|-----------------7h8h7-|----------------------|
G|-----------------------|-------7h9h7----------|
D|-----------------------|----------------------|
A|-----------------------|----------------------|
E|-----------------------|----------------------|

____________________________________________________________________

ACORDES (los agrego por si están mal los nombres que les puse):

    C#*  Cadd9   Cmaj7/C#   D*   Cadd9*  Emadd9  B5
e|--0--|---0---|----0----|--0--|---0---|---x---|--x--|
B|--7--|---3---|----5----|--7--|---3---|---x---|--x--|
G|--6--|---0---|----4----|--7--|---0---|---0---|--4--|
D|--5--|---2---|----5----|--4--|---0---|---4---|--x--|
A|--4--|---3---|----4----|--5--|---x---|---2---|--2--|
E|--x--|---x---|----x----|--x--|---x---|---x---|--x--|

            
            
Suggest correction
Creating personal tab
Creating personal tab
You can edit any tab online and save it as your Personal.

You can edit, replace or remove any tab part or add personal notes – all changes will be seen only by you.

Personal tabs can be accessed anytime from any device, even offline.
Learn more »
Give kudos to tab author, rate the tab!
1 2 3 4 5
comments
print report bad tab
guest
Wanna post a correction for this tab? Suggest correction