Oops, an error
Loading. Please wait.

La Cuna Del Sol tab

version 1
version 1

Whole song

48 views 1 this week
no commentswrite comment
1 2 3 4 5
3 more votes to show rating
add to favorites
×
Save as Personal and add changes to this tab that will be seen only by you. Learn more ›
×
You can save this tab as Personal to edit and correct it or add notes. All changes will be seen only by you. Learn more »
launch autoscroll
font size
0
reset
how to read this tab
guitar tuner
edit
Autoscroll
slow
fast
+/-
esc
set tempo
stop
   E              Em/D           C#/E        Am              C
e|-----------------------------------------------------------------------
B|------------------------------------0----0-----------------------------
G|-----1------1--0-0-0-0------------0--------4/5-4-5/7-5----4h5-----4-4/5
D|---2---2/4--2---------5/7-5------2----------------------------0h2------
A|-------------------------------4---------------------------------------
E|-0---------------------------------------------------------------------

(Esto lo toca arriba de la estrofa siguiente)

E
Nada es más perfecto
        Em/D
Que mi alma entre tus soles,
           C#/E
Ya no hay rabia si es que tengo
      Am
Mi mayor debilidad,
     C
Un otoño personal.


       E             Em/D           C#/E       Am            C
e ------------------------------------------------------------------------|
B -------------------------------------0----0-----------------------------|
G ---------1-------1-0-0-0------------0--------4/5-4-5/7-5---4h5-----4-4/5|
D -------2----2/4--2--------5/7-5----2---------------------------0h2------|
A -7/5------------------------------4-------------------------------------|
E -----0------------------------------------------------------------------|

(Esto lo toca arriba de la estrofa siguiente)

E
Un rally de muerte,
      Em/D
Otro funk para tus dientes,
       C#/E
Una guerra vergonzosa
          Am
Tras mi espalda caerás,
        C
Se que no podrás gritar,

e |-----------------|
B |-----------------|
G |-----------------|
D |-----------------|
A |-----------4-5-7-|
E |--7-7-5-5--------|

    C
Ya sé que estás
     D
Obligado a este mundo
      C#/E
Un latido tan absurdo
           Am
Siempre a pasos de llegar
   C              D
Bajaste ya como bajan las estrellas,
     C#/E                    Am
Así pido tres deseos quizás uno se nos da.

e |-----------------|
B |-----------------|
G |-----------------|
D |-----------------|
A |-----------4-5-7-|
E |--7-7-5-5--------|

E
Más lagrimas que penas,
      Em/D
Más acero que madera
      C#/E                     Am
Y la peste evoluciona, nuevas formas, nuevo mal,
        C
Tan presente y sin notar.

E
Fuentes sin monedas
      Em/D
Otra madre que aún espera,
     C#/E
El beso de los que sueñan,
       Am
Sin temor a despertar,
      C
La mañana sanará.

G                              Cmaj7
     No quiero que te mate el pánico.

Inter:
E  C  D  E  Em  C  D  D  x2

E
Nada es más perfecto
       Em/D
Que mi alma entre tus soles,
           C#/E
Ya no hay rabia si es que tengo
      Am
Mi mayor debilidad,
     C
Un otoño personal.

E
Un rally de muerte,
      Em/D
Otro funk para tus dientes,
      C#/E
Una guerra vergonzosa
          Am
Tras mi espalda caerás,
        Cmaj7
Se que no podrás gritar,


      E  C     D  E        Em C     D (estos los hace la otra gtr q sube)
e |-------------------------------------------|
B |----4/5-------4/5-7-5----4/5-------4/5-7-5-|
G |---4---4----4-----------4---4----4---------|
D |-------------------------------------------|
A |-------------------------------------------|
E |-------------------------------------------|
 X2

E        C        D
Lejos de ser un abismo
                  E
Entre lo que hoy vivo y verás.
 Em C        D
Abajo será siempre la cuna del sol.

(repite)

C
Ya sé que estás
     D
Obligado a este mundo
      Em
Un latido tan absurdo
           C
Siempre a pasos de llegar
   C              D
Bajaste ya como bajan las estrellas,
     Em                      C
Así pido tres deseos quizás uno se nos da.

E         C       D
Lejos de ser un abismo
                  E
Entre lo que hoy vivo y verás.
 Em C        D
Abajo será siempre la cuna del sol.

(repite)

E |---7---------7---------7----|
B |--8-8-7-----8-8-7-----8-8-7-|
G |-9---------9---------9------|
D |----------------------------|
A |----------------------------|
E |----------------------------|

C#/E:
E  0
B  0
G  0
D  2
A  4
E  x

Cmaj7:
E  0
B  0
G  0
D  2
A  3
E  x

Em/D:
E 0
B 0
G 0
D 5
A 5
E x

            
            
Suggest correction
Creating personal tab
Creating personal tab
You can edit any tab online and save it as your Personal.

You can edit, replace or remove any tab part or add personal notes – all changes will be seen only by you.

Personal tabs can be accessed anytime from any device, even offline.
Learn more »
Give kudos to tab author, rate the tab!
1 2 3 4 5
comments
print report bad tab
guest
Wanna post a correction for this tab? Suggest correction